The Perishers

Someday

The Perishers

tabs

by  BRUNBLAZKOWSKI

save to print version add songbook text version e-mail correct tuner
chordsukulelecavacokeyboardtabbassdrumsharmonicaflute Guitar Pro
close

there isn't a video lesson for this song

chords

Someday

Key:  G More
Someday Key DD
Someday Key D#D#
Someday Key EE
Someday Key FF(one step down)
Someday Key F#F#(half step down)
Someday Key GG(original key)
Someday Key G#G#(half step up)
Someday Key AA(one step up)
Someday Key A#A#
Someday Key BB
Someday Key CC
Someday Key C#C#
	  		
 


Intro/Verse: 
  G                           G/F#      C 
|-------------------|-----------------|-------------------| 
|-------------------|-----------------|-----1---------1---| 
|-----0---------0---|-----0-----------|---0---0-----0---0-| 
|---0---0-----0---0-|---0---0---0---0-|---------0h2-------| 
|---------0h2-------|-------------2---|-3-----------------| 
|-3-----------------|-3-------2-------|-------------------| 


          D7/F# 
|-----------------|------| 
|-----1-----------|-1----| 
|---0---0-----2---|------| 
|-----------0---0-|------| 
|-3---------------|------| 
|---------2-------|------| 


Refräng: 
  G       Bm/F#     C           D7/F# G       Bm/F#     C           D7/F# 
|-----------------|-----------------|-----------------|-----------------| 
|-----------------|-----1-----1---1-|-----------------|-----1-----1---1-| 
|-----0-----------|---0---0---------|-----0-----------|---0---0---------| 
|---0---0-----4---|-----------------|---0---0-----4---|-----------------| 
|-----------5---5-|-3-------3-------|-----------5---5-|-3-------3-------| 
|-3-------2-------|-------------2---|-3-------2-------|-------------2---| 


  Em      Em/D     Cmaj7   G/B       Am      G/B       C       Cadd9 
|----------------|-----------------|-----------------|--------------| 
|-----0-------0--|-----0-------0---|-----1-------0---|-----1---3----| 
|---0---0---0----|---0---0---0---0-|---0---0---0---0-|---0---0------| 
|-2-------0------|-----------------|-----------------|--------------| 
|----------------|-3-------2-------|-0-------2-------|-3------------| 
|----------------|-----------------|-----------------|--------------| 
 
		  

Full key step upFull key step up
Half key step upHalf key step up
Half key step downHalf key step down
Full key step downFull key step down
hide glossary

See also:

tabs Giorgio Moroder - Tears tabs Howard Shore - Concerning Hobbits tabs Ghost Rider - Ghost Rider (intro) tabs FLCL - Sad Sad Kiddie tabs John Carpenter - Laurie's Theme tabs Gustavo Santaolalla - Vanishing Grace Innocence
e-chords

Other versions:

tabs Sugar Ray - Someday tabs The Strokes - Someday tabs Dj Ashba - Someday tabs Pete Schmidt - Someday tabs IU - Someday tabs The Perishers - Someday
auto scroll beats size up size down change color hide chords drawings
tab show chords e-chords YouTube Clip e-chords hide all tabs e-chords go to top tab

share