The Orwells

Gotta Get Down

The Orwells

tabs

by  ALYSLIMA

save to print version add songbook text version e-mail correct tuner
chordsukulelecavacokeyboardtabbassdrumsharmonicaflute Guitar Pro
close

there isn't a video lesson for this song

chords

Gotta Get Down

	  		The Orwells- Gotta Get Down     By: Chris Klug 

e------------------------------------------------------| 
B------------------------------------------------------| 
G------------------------------------------------------|    x2 
D-------0--------------------0-------2s4--2--0--2------|  -s=slide 
A--2------2---0---------2-------2----------------------|  -hold these notes/let ring 
E------------------2-----------------------------------| 
(Chords come in lightly) 

e----------------------------------------------------------------------| 
B----------------------------------------------------------------------| 
G----------------------------------------------------------------------| 
D-------0--------------------0-------2s4--2--0--2--0----------------0--| 
A--2------2---0---------2-------2--------------------------------------| 
E------------------2---------------------------------------------------| 
                                I wanna get stupid       I gotta get limb      I wanna have 

e----------------------------------------2-----0-----| 
B--3----2----3------------3----2----3-------3-----3--| 
G----------------------------------------------------| 
D----------------------------------------------------| 
A----------------------------------------------------| 
E----------------------------------------------------| 
faith in     something I don't get      I'm starting to feel 

e-------------------------------------------------| 
B-------------------------------------------------| 
G-------------------------------------------------|    x3 
D-------0--------------------0-------2s4--2--0--2-| 
A--2------2---0---------2-------2-----------------| 
E------------------2------------------------------| 
down                            Come see me in a bit 
                              My daddy's got a 
twelve gauge                  I hope I don't find it 

e----------------------------------------------------------------------| 
B----------------------------------------------------------------------| 
G----------------------------------------------------------------------| 
D-------0--------------------0-------2s4--2--0--2--0----------------0--| 
A--2------2----0--------2-------2--------------------------------------| 
E------------------2---------------------------------------------------| 

e----------------------------------------2-----0-----| 
B--3----2----3------------3----2----3-------3-----3--| 
G----------------------------------------------------| 
D----------------------------------------------------| 
A----------------------------------------------------| 
E----------------------------------------------------| 
Don't leave me. Sit back down. Come around. Put a ???? 

e-------------------------------------------------| 
B-------------------------------------------------| 
G-------------------------------------------------|    x3 
D-------0--------------------0-------2s4--2--0--2-| 
A--2------2---0---------2-------2-----------------| 
E------------------2------------------------------| 
                                          Get found! 
          (Chords played here along with tab) 

e----------------------------------------------------------------------| 
B----------------------------------------------------------------------| 
G----------------------------------------------------------------------| 
D-------0--------------------0-------2s4--2--0--2--0----------------0--| 
A--2------2---0---------2-------2--------------------------------------| 
E------------------2---------------------------------------------------| 

Break: play a couple Bm's lightly 

e------------------------------------| 
B--33333333222222223333333355555555--| 
G------------------------------------|   x4 
D------------------------------------| 
A------------------------------------| 
E------------------------------------| 

                          make sure you use bar chords for all of them 
                           so that you can make the right sound as you 
                                    lift your fingers on and off 
           Chords: 
_____________Bm___________F#___________G____________A____________ 

e------------2------------2------------3------------5------------| 
B------------3------------2------------3------------5------------| 
G------------4------------3------------4------------6------------| 
D------------4------------4------------5------------7------------| 
A------------2------------4------------5------------7------------| 
E------------2------------2------------3------------5------------| 
 
		  

auto scroll beats size up size down change color hide chords drawings
tab show chords e-chords YouTube Clip e-chords hide all tabs e-chords go to top tab

share