The Offspring

home > The Offspring

Rage Against Myself Tab

The Offspring

Difficulty: ExpertExpert

tuner correct add songbook print version text version save to e-mail
chordsukulelecavacokeyboardtabbassdrumsharmonicsflute Guitar Pro
chords

Rage Against Myself

  		 
Intro: 
Guitarra 1 
e|----------------------------------| 
B|----------------------------------| 
G|1111111111xx77777xx-------99999xx-|3x 
D|1111111111xx77777xx77777xx99999xx-| 
A|-9-9-9-9-9xx55555xx77777xx77777xx-| 
E|-------------------55555xx--------| 
 
e|----------------------------| 
B|----------------------------| 
G|1111117-77-7-------99-911-| 
D|1111117-77-7-7-777-99-911-| 
A|-9-9-95-55-5-7-777-77-79--| 
E|--------------5-555---------| 
 
 
Guitarra 2                                      
e|----------------------------------------|   
B|----------------------------------------|   
G|-911-11*-13-1314-141414-13-139-999-9-|2x 
D|----------------------------------------|   
A|----------------------------------------|   
E|----------------------------------------|  
*tocar 9x 
 
e|------------------------------------------| 
B|------------------------------------------| 
G|-11-11*-13-1314-14-16-14-13-139-99-11-7-| 
D|------------------------------------------| 
A|------------------------------------------| 
E|------------------------------------------| 
 
e|-9-10-9-7-------| 
B|----------10-9--| 
G|----------------| 
D|----------------| 
A|----------------| 
E|----------------| 
Pré-Verso: 
e|----------------------------------| 
B|----------------------------------| 
G|-91111x11x11x11111111119xx9x9x9-|2x 
D|-91111x11x11x11111111119xx9x9x9-| 
A|-79xx9xx9xx9xx9-9-9-9-97xx7x7x7-| 
E|----------------------------------| 
 
Verso: 
e|----------------------------------| 
B|----------------------------------| 
G|-1111111111111111111111111111111--| 
D|-1111111111111111111111111111111--| 
A|-9-9-9-9-9-9-9-9-9-9-9-9-9-9-9-9--| 
E|----------------------------------| 
   abafado........................ 
e|----------------------------------| 
B|----------------------------------| 
G|-9999999999999999-----------------| 
D|-9999999999999999-----------------| 
A|-7777777777777777-----------------| 
E|----------------------------------| 
   abafado......... 
 
Refrão: 
 
Guitarra 1 
 
e|----------------------------| 
B|----------------------------| 
G|1111117-77-7-------99-911-| 
D|1111117-77-7-7-777-99-911-| 
A|-9-9-95-55-5-7-777-77-79--| 
E|--------------5-555---------| 
 
Guitarra 2                                      
e|----------------------------------------|   
B|----------------------------------------|   
G|-911-11*-13-1314-141414-13-139-999-9-|2x 
D|----------------------------------------|   
A|----------------------------------------|   
E|----------------------------------------|  
*tocar 9x 
 
e|------------------------------------------| 
B|------------------------------------------| 
G|-11-11*-13-1314-14-16-14-13-139-99-11-7-| 
D|------------------------------------------| 
A|------------------------------------------| 
E|------------------------------------------| 
 
e|-9-10-9-7-------| 
B|----------10-9--| 
G|----------------| 
D|----------------| 
A|----------------| 
E|----------------| 
 
Bridge: 
e|-------------------------------------| 
B|-------------------------------------| 
G|-------------------------------------| 
D|---4--4--4--4-10979---4--4--4--4-7-9-| 
A|--------------10979--------------7-9-| 
E|-22-22-22-22---8757-22-22-22-22--5-7-| 
 
Final: 
e|-------------------------------------| 
B|-------------------------------------| 
G|119-99-99-9999-11.....--------------| 
D|119-99-99-9999-11.....--------------| 
A|-97-77-77-7777--9.....--------------| 
E|-------------------------------------| 
 
 
 
_______________________________________________________ 
Contribuição: Douglas Ferlini Bastos Machado([email protected]) 
	  

Search Paypal
auto scroll beats size up size down change color hide chords drawings
tab show chords e-chords YouTube Clip e-chords hide all tabs e-chords go to top tab