The Narrative

Dont Want To Fall

The Narrative

tabs

by  TARIKIKE

save to print version add songbook text version e-mail correct tuner
chordsukulelecavacokeyboardtabbassdrumsharmonicaflute Guitar Pro
close

there isn't a video lesson for this song

chords

Dont Want To Fall

	  		Tuning: Standard       st Fret 

  verse 1 
        
e|---------------------------------------------------------------| 
B|--------3--------------3--------------0--------------0---------| 
G|----0---0----------0---0----------0---0----------0---0---------| 
D|------------0--------------0---------------2-------------2-----| 
A|--------2--------------2--------------2--------------2---------| 
E|-3--------------3--------------0--------------0----------------| 

e|---------------------------------------------------------------| 
B|--------1--------------1--------------3--------------3---------| 
G|----0---0----------0---0----------0---0----------2---2---------|  
D|------------2--------------2--------------0--------------0-----|    
A|-3------3-------3------3--------------2-------0------0---------| 
E|-------------------------------3-------------------------------| 

e|---------------------------------------------------------------| 
B|--------3--------------3--------------0--------------0---------| 
G|----0---0----------0---0----------0---0----------0---0---------| 
D|------------0--------------0---------------2-------------2-----| 
A|--------2--------------2--------------2--------------2---------| 
E|-3--------------3--------------0--------------0----------------| 

e|---------------------------------------------------------------| 
B|--------1--------------1--------------3--------------3---------| 
G|----0---0----------0---0----------0---0----------2---2---------|  
D|------------2--------------2--------------0--------------0-----|    
A|-3------3-------3------3--------------2-------0------0---------| 
E|-------------------------------3-------------------------------| 

  Pre-Chorus 1 

e|---------------------------------------------------------------------| 
B|--------0----------------1---1---1-----------------------------------| 
G|----0---0------------0---0---0---0---0---0---0---0---0---0---0---0---| 
D|------------2------------------------0---0---0---0---2---2---2---2---| 
A|--------2---------3------3---3---3-------------------3---3---3---3---| 
E|-0-----------------------------------3---3---3---3-------------------| 

   Chorus: Don't rush the hammer ons  

e|-------------------------------------------------------------| 
B|--------3--------------3--------------0-------------0h1p0----| 
G|----0---0----------2---2----------0---0---------0---0--------| 
D|------------0--------------0--------------0------------------| 
A|--------2-------0------0--------------2-------3-----3--------| 
E|-3-----------------------------0-----------------------------| 

e|-------------------------------------------------------------| 
B|--------3--------------3--------------0-------------0h1p0----| 
G|----0---0----------2---2----------0---0---------0---0--------| 
D|------------0--------------0--------------0------------------| 
A|--------2-------0------0--------------2-------3-----3--------| 
E|-3-----------------------------0-----------------------------| 

e|-------------------------------------------------------------| 
B|--------3--------------3--------------0-------------0h1p0----| 
G|----0---0----------2---2----------0---0---------0---0--------| 
D|------------0--------------0--------------0------------------| 
A|--------2-------0------0--------------2-------3-----3--------| 
E|-3-----------------------------0-----------------------------| 

e|--------------------------------------------------------| 
B|--------3--------------3--------------0--------1--------| 
G|----0---0----------2---2----------0---0--------0--------| 
D|------------0--------------0--------------0----2--------| 
A|--------2-------0------0--------------2--------3--------| 
E|-3-----------------------------0------------------------| 

  verse 2 

e|---------------------------------------------------------------| 
B|--------3--------------3--------------0--------------0---------| 
G|----0---0----------0---0----------0---0----------0---0---------| 
D|------------0--------------0---------------2-------------2-----| 
A|--------2--------------2--------------2--------------2---------| 
E|-3--------------3--------------0--------------0----------------| 

e|---------------------------------------------------------------| 
B|--------1--------------1--------------3--------------3---------| 
G|----0---0----------0---0----------0---0----------2---2---------|  
D|------------2--------------2--------------0--------------0-----|    
A|-3------3-------3------3--------------2-------0------0---------| 
E|-------------------------------3-------------------------------| 

e|---------------------------------------------------------------| 
B|--------3--------------3--------------0--------------0---------| 
G|----0---0----------0---0----------0---0----------0---0---------| 
D|------------0--------------0---------------2-------------2-----| 
A|--------2--------------2--------------2--------------2---------| 
E|-3--------------3--------------0--------------0----------------| 

e|---------------------------------------------------------------| 
B|--------1--------------1--------------3--------------3---------| 
G|----0---0----------0---0----------0---0----------2---2---------|  
D|------------2--------------2--------------0--------------0-----|    
A|-3------3-------3------3--------------2-------0------0---------| 
E|-------------------------------3-------------------------------| 

e|---------------------------------| 
B|--------0--------1---1---1---1---| 
G|----0---0--------0---0---0---0---| 
D|------------2--------------------| 
A|--------2--------3---3---3---3---| 
E|-0-------------------------------| 

  Pre-Chorus 2 

e|-------------------------------------------------------------------| 
B|-----------------------------------------------------------3---3---| 
G|---0---0---0---0---0---0---0---0---0---0---0---0---0---0---2---2---| 
D|---0---0---0---0---2---2---2---2---2---2---2---2---0---0-----------| 
A|-------------------3---3---3---3---------------------------0---0---| 
E|---3---3---3---3-------------------0---0---0---0---3---3-----------| 

  Chorus 2 

e|-------------------------------------------------------------| 
B|--------3--------------3--------------0-------------0h1p0----| 
G|----0---0----------2---2----------0---0---------0---0--------| 
D|------------0--------------0--------------0------------------| 
A|--------2-------0------0--------------2-------3-----3--------| 
E|-3-----------------------------0-----------------------------| 

e|-------------------------------------------------------------| 
B|--------3--------------3--------------0-------------0h1p0----| 
G|----0---0----------2---2----------0---0---------0---0--------| 
D|------------0--------------0--------------0------------------| 
A|--------2-------0------0--------------2-------3-----3--------| 
E|-3-----------------------------0-----------------------------| 

e|-------------------------------------------------------------| 
B|--------3--------------3--------------0-------------0h1p0----| 
G|----0---0----------2---2----------0---0---------0---0--------| 
D|------------0--------------0--------------0------------------| 
A|--------2-------0------0--------------2-------3-----3--------| 
E|-3-----------------------------0-----------------------------| 

e|----------------------------------------------| 
B|--------3--------------3--------------0-------| 
G|----0---0----------2---2----------0---0-------| 
D|------------0--------------0--------------0---| 
A|--------2-------0------0--------------2-------| 
E|-3-----------------------------0--------------| 

  Bridge: Played 5 Times 

e|--------------------------------------------------------------------------| 
B|-------1--------1--------3--------3--------0--------0--------0--------0---| 
G|----0--------0--------2--------2--------0--------0--------0--------0------| 
D|--------------------------------------------------------------------------| 
A|-3--------3--------0--------0-----------------2-----------------2---------| 
E|-------------------------------------0-----------------0------------------| 

  Bridge Part 2: Played Softer 2 Times 

e|--------------------------------------------------------------------------| 
B|-------1--------1--------3--------3--------0--------0--------0--------0---| 
G|-0--0-----0--0-----2--2-----2--2--------0--------0--------0--------0------| 
D|-2--------2--------0--------0--------2--------2--------2--------2---------| 
A|-3--------3--------0--------0--------2--------2--------2--------2---------| 
E|-------------------------------------0--------0--------0--------0---------| 

  Outro  

e|-------------------------2-----0-----3---| 
B|-----------1-------------3--0--1--0--3---| 
G|-0---------0-------------2-----0-----0---| 
D|-0---------2-------------0-----2-----0---| 
A|-2---------3-------------------3-----x---| 
E|-3-----------------------------------3---| 

 
		  

auto scroll beats size up size down change color hide chords drawings
tab show chords e-chords YouTube Clip e-chords hide all tabs e-chords go to top tab

share