The Muffs

Another Day

The Muffs

tabs

by  JOAOEWERTON

save to print version add songbook text version e-mail correct tuner
chordsukulelecavacokeyboardtabbassdrumsharmonicaflute Guitar Pro
close

there isn't a video lesson for this song

chords

Another Day

	  		  Intro 

  Bass tabbed for guitar 

e|-----------------------------| 
B|-----------------------------| 
G|-----------------------------| 
D|-3h4----3h4----3h4-2---------| 
A|-----------------------4-2-0-| 
E|-----------------------------| 



  Verse 

   F#              
e|-----------------------------|-----------------------------| 
B|----5----5---5----5----5---5-|----5----5---5----5----5---5-| 
G|-3--3--x-3-x-3-3--3--x-3-x-3-|-3--3--x-3-x-3-3--3--x-3-x-3-| 
D|-x--x--x-x-x-x-x--x--x-x-x-x-|-x--x--x-x-x-x-x--x--x-x-x-x-| 
A|-4--4--x-4-x-4-4--4--x-4-x-4-|-4--4--x-4-x-4-4--4--x-4-x-4-| 
E|-2-------------2-------------|-2-------------2-------------| 
   Any other     time of day     I would ever  walk away 

   B                             F# 
e|----5----5---5----5----5---5-|-----------------------------| 
B|----4--x-4-x-4----4--x-4-x-4-|----5----5---5----5----5---5-| 
G|-4--4--x-4-x-4-4--4--x-4-x-4-|-3--3--x-3-x-3-3--3--x-3-x-3-| 
D|-4--4--x-4-x-4-4--4--x-4-x-4-|-x--x--x-x-x-x-x--x--x-x-x-x-| 
A|-2-------------2-------------|-4--4--x-4-x-4-4--4--x-4-x-4-| 
E|-----------------------------|-2-------------2-------------| 
   from you cause you havent got a clue 

   F# 
e|-----------------------------|-----------------------------| 
B|----5----5---5----5----5---5-|----5----5---5----5----5---5-| 
G|-3--3--x-3-x-3-3--3--x-3-x-3-|-3--3--x-3-x-3-3--3--x-3-x-3-| 
D|-x--x--x-x-x-x-x--x--x-x-x-x-|-x--x--x-x-x-x-x--x--x-x-x-x-| 
A|-4--4--x-4-x-4-4--4--x-4-x-4-|-4--4--x-4-x-4-4--4--x-4-x-4-| 
E|-2-------------2-------------|-2-------------2-------------| 
   When you always come around   I know that I maybe sound  

   B                             F# 
e|----5----5---5----5----5---5-|-----------------------------| 
B|----4--x-4-x-4----4--x-4-x-4-|----5----5---5----5----5---5-| 
G|-4--4--x-4-x-4-4--4--x-4-x-4-|-3--3--x-3-x-3-3--3--x-3-x-3-| 
D|-4--4--x-4-x-4-4--4--x-4-x-4-|-x--x--x-x-x-x-x--x--x-x-x-x-| 
A|-2-------------2-------------|-4--4--x-4-x-4-4--4--x-4-x-4-| 
E|-----------------------------|-2-------------2-------------| 
   stupid but I want to step on  you 



  Chorus 

   C#                              F# 
e|-------------------------------|-----------------------------| 
B|-------------------------------|----5----5---5----5----5---5-| 
G|-6---6---6---6---6---6---6---6-|-3--3--x-3-x-3-3--3--x-3-x-3-| 
D|-6---6---6---6---6---6---6---6-|-x--x--x-x-x-x-x--x--x-x-x-x-| 
A|-4---4---4---4---4---4---4---4-|-4--4--x-4-x-4-4--4--x-4-x-4-| 
E|-------------------------------|-2-------------2-------------| 
  If  you  say another word to     me    Ill    make   you 
   
   C#                              B 
e|-------------------------------|-------------------------------| 
B|-------------------------------|-------------------------------| 
G|-6---6---6---6---6---6---6---6-|-4---4---4---4---4---4---4---4-| 
D|-6---6---6---6---6---6---6---6-|-4---4---4---4---4---4---4---4-| 
A|-4---4---4---4---4---4---4---4-|-2---2---2---2---2---2---2---2-| 
E|-------------------------------|-------------------------------| 
   sorry   that you ever came my   way                  Another  

   F#            B               F#            B 
e|--------------------5--5---5-|--------------------5--5---5-| 
B|----5----5---5------4--4---4-|----5----5---5------4--4---4-| 
G|-3--3--x-3-x-3-4--4-4--4-4-4-|-3--3--x-3-x-3-4--4-4--4-4-4-| 
D|-x--x--x-x-x-x-4--4-4--4-4-4-|-x--x--x-x-x-x-4--4-4--4-4-4-| 
A|-4--4--x-4-x-4-2--2------2---|-4--4--x-4-x-4-2--2------2---| 
E|-2---------------------------|-2---------------------------| 
   day                  Another day                   Yeah 

   F# 
e|-----------------------------|-----------------------------| 
B|----5----5---5----5----5---5-|----5----5---5----5----5---5-| 
G|-3--3--x-3-x-3-3--3--x-3-x-3-|-3--3--x-3-x-3-3--3--x-3-x-3-| 
D|-x--x--x-x-x-x-x--x--x-x-x-x-|-x--x--x-x-x-x-x--x--x-x-x-x-| 
A|-4--4--x-4-x-4-4--4--x-4-x-4-|-4--4--x-4-x-4-4--4--x-4-x-4-| 
E|-2-------------2-------------|-2-------------2-------------| 



  Verse 

   F#                             
e|-----------------------------|-----------------------------| 
B|----5----5---5----5----5---5-|----5----5---5----5----5---5-| 
G|-3--3--x-3-x-3-3--3--x-3-x-3-|-3--3--x-3-x-3-3--3--x-3-x-3-| 
D|-x--x--x-x-x-x-x--x--x-x-x-x-|-x--x--x-x-x-x-x--x--x-x-x-x-| 
A|-4--4--x-4-x-4-4--4--x-4-x-4-|-4--4--x-4-x-4-4--4--x-4-x-4-| 
E|-2-------------2-------------|-2-------------2-------------| 
   If you want to be with me     think of all my privacy 

   B                             F# 
e|----5----5---5----5----5---5-|-----------------------------|-----------------------------| 
B|----4--x-4-x-4----4--x-4-x-4-|----5----5---5----5----5---5-|----5----5---5----5----5---5-| 
G|-4--4--x-4-x-4-4--4--x-4-x-4-|-3--3--x-3-x-3-3--3--x-3-x-3-|-3--3--x-3-x-3-3--3--x-3-x-3-| 
D|-4--4--x-4-x-4-4--4--x-4-x-4-|-x--x--x-x-x-x-x--x--x-x-x-x-|-x--x--x-x-x-x-x--x--x-x-x-x-| 
A|-2-------------2-------------|-4--4--x-4-x-4-4--4--x-4-x-4-|-4--4--x-4-x-4-4--4--x-4-x-4-| 
E|-----------------------------|-2-------------2-------------|-2-------------2-------------| 
   Id appreciate you when youre  gone                          yee-haw 

   F# 
e|-----------------------------|-----------------------------| 
B|----5----5---5----5----5---5-|----5----5---5----5----5---5-| 
G|-3--3--x-3-x-3-3--3--x-3-x-3-|-3--3--x-3-x-3-3--3--x-3-x-3-| 
D|-x--x--x-x-x-x-x--x--x-x-x-x-|-x--x--x-x-x-x-x--x--x-x-x-x-| 
A|-4--4--x-4-x-4-4--4--x-4-x-4-|-4--4--x-4-x-4-4--4--x-4-x-4-| 
E|-2-------------2-------------|-2-------------2-------------| 
   Doing every   thing I do      I wish I was  rid of you    

   B                             F# 
e|----5----5---5----5----5---5-|-----------------------------| 
B|----4--x-4-x-4----4--x-4-x-4-|----5----5---5----5----5---5-| 
G|-4--4--x-4-x-4-4--4--x-4-x-4-|-3--3--x-3-x-3-3--3--x-3-x-3-| 
D|-4--4--x-4-x-4-4--4--x-4-x-4-|-x--x--x-x-x-x-x--x--x-x-x-x-| 
A|-2-------------2-------------|-4--4--x-4-x-4-4--4--x-4-x-4-| 
E|-----------------------------|-2-------------2-------------| 
   But you stay around me for too long 



  Chorus 

   C#                              F# 
e|-------------------------------|-----------------------------| 
B|-------------------------------|----5----5---5----5----5---5-| 
G|-6---6---6---6---6---6---6---6-|-3--3--x-3-x-3-3--3--x-3-x-3-| 
D|-6---6---6---6---6---6---6---6-|-x--x--x-x-x-x-x--x--x-x-x-x-| 
A|-4---4---4---4---4---4---4---4-|-4--4--x-4-x-4-4--4--x-4-x-4-| 
E|-------------------------------|-2-------------2-------------| 
I know that you'll be here for a long time now if 

   C#                              B 
e|-------------------------------|-------------------------------| 
B|-------------------------------|-------------------------------| 
G|-6---6---6---6---6---6---6---6-|-4---4---4---4---4---4---4---4-| 
D|-6---6---6---6---6---6---6---6-|-4---4---4---4---4---4---4---4-| 
A|-4---4---4---4---4---4---4---4-|-2---2---2---2---2---2---2---2-| 
E|-------------------------------|-------------------------------| 
   I dont make you gone you're gonna stay                Another  

   F#            B               F#            B 
e|--------------------5--5---5-|--------------------5--5---5-| 
B|----5----5---5------4--4---4-|----5----5---5------4--4---4-| 
G|-3--3--x-3-x-3-4--4-4--4-4-4-|-3--3--x-3-x-3-4--4-4--4-4-4-| 
D|-x--x--x-x-x-x-4--4-4--4-4-4-|-x--x--x-x-x-x-4--4-4--4-4-4-| 
A|-4--4--x-4-x-4-2--2------2---|-4--4--x-4-x-4-2--2------2---| 
E|-2---------------------------|-2---------------------------| 
   day                  Another day                   another 

  F#           B                F#           C# 
e|--------------------5--5---5-|-----------------------------| 
B|----5----5---5------4--4---4-|----5----5-------------------| 
G|-3--3--x-3-x-3-4--4-4--4-4-4-|-3--3--x-3-x-6---6---6---6---| 
D|-x--x--x-x-x-x-4--4-4--4-4-4-|-x--x--x-x-x-6---6---6---6---| 
A|-4--4--x-4-x-4-2--2------2---|-4--4--x-4-x-4---4---4---4---| 
E|-2---------------------------|-2---------------------------| 
   day                  Another day                  



  Solo 

   F#                             
e|-----------------------------|------------------------------| 
B|-7------5--------------------|----------2-------------------| 
G|-9b11---7b9---6----6--4--2---|------2---4b6-------6r4-2-----| 
D|-----------------------------|-4--4---------------------4-/-| 
A|-----------------------------|------------------------------| 
E|-----------------------------|------------------------------| 

   B                                   F# 
e|----------------------------------|-----14-----12-----11----9-----| 
B|-12-------12-------12-------------|-------------------------------| 
G|-14b16-16-14b16-16-14b16-14-11-14-|-/15----/13----/11----/9----9--| 
D|----------------------------------|-------------------------------| 
A|----------------------------------|-------------------------------| 
E|----------------------------------|-------------------------------| 

    F#  
e|---------------------------------------------------| 
B|---------------------------------------------------| 
G|-11v---9-8-----------------------------------------| 
D|-----------11b12r11---9----------------------------| 
A|------------------------12-9b10r9---7-6-4b5r4--2-0-| 
E|---------------------------------------------------| 

   B                             F# 
e|-------------------------------|-----14-----12-----11----9-----| 
B|-12----12----12----------------|-------------------------------| 
G|-14b16-14b16-14b16r14--11--11/-|-/15----/13----/11----/9----9--| 
D|-------------------------------|-------------------------------| 
A|-------------------------------|-------------------------------| 
E|-------------------------------|-------------------------------| 



  Chorus 

   C#                            F# 
e|-----------------------------|------------------------------| 
B|-----------------------------|-5----------------------------| 
G|-6---------------------------|-3----------------------------| 
D|-6---------------------------|-x----------------------------| 
A|-4---------------------------|-4----------------------------| 
E|-----------------------------|-2----------------------------| 
   If you say another word to    me       Ill    make    you 

   C#                            B 
e|-----------------------------|-----------------------------|------------------------| 
B|-----------------------------|-----------------------------|------------------------| 
G|-6---------------------------|-4---------------------------|-4--4--4--4--4--4--4--4-| 
D|-6---------------------------|-4---------------------------|-4--4--4--4--4--4--4--4-| 
A|-4---------------------------|-2---------------------------|-2--2--2--2--2--2--2--2-| 
E|-----------------------------|-----------------------------|------------------------| 
   sorry that you ever came my  way                              whoa          another 

   F#            B               F#            B 
e|--------------------5--5---5-|--------------------5--5---5-| 
B|----5----5---5------4--4---4-|----5----5---5------4--4---4-| 
G|-3--3--x-3-x-3-4--4-4--4-4-4-|-3--3--x-3-x-3-4--4-4--4-4-4-| 
D|-x--x--x-x-x-x-4--4-4--4-4-4-|-x--x--x-x-x-x-4--4-4--4-4-4-| 
A|-4--4--x-4-x-4-2--2------2---|-4--4--x-4-x-4-2--2------2---| 
E|-2---------------------------|-2---------------------------| 
   day                  Another day                   another 

   F#            B               F#            C# 
e|--------------------5--5---5-|-----------------------------| 
B|----5----5---5------4--4---4-|----5----5---5---------------| 
G|-3--3--x-3-x-3-4--4-4--4-4-4-|-3--3--x-3-x-3-6---6---6---6-| 
D|-x--x--x-x-x-x-4--4-4--4-4-4-|-x--x--x-x-x-X-6---6---6---6-| 
A|-4--4--x-4-x-4-2--2------2---|-4--4--x-4-x-4-4---4---4---4-| 
E|-2---------------------------|-2---------------------------| 
   day                  Another day                   another 

   F#            B               F#            B 
e|--------------------5--5---5-|--------------------5--5---5-| 
B|----5----5---5------4--4---4-|----5----5---5------4--4---4-| 
G|-3--3--x-3-x-3-4--4-4--4-4-4-|-3--3--x-3-x-3-4--4-4--4-4-4-| 
D|-x--x--x-x-x-x-4--4-4--4-4-4-|-x--x--x-x-x-x-4--4-4--4-4-4-| 
A|-4--4--x-4-x-4-2--2------2---|-4--4--x-4-x-4-2--2------2---| 
E|-2---------------------------|-2---------------------------| 
   day                  Another day                   another 

   F#            B               F#            C# 
e|--------------------5--5---5-|-----------------------------| 
B|----5----5---5------4--4---4-|----5----5---5---------------| 
G|-3--3--x-3-x-3-4--4-4--4-4-4-|-3--3--x-3-x-3-6---6---6---6-| 
D|-x--x--x-x-x-x-4--4-4--4-4-4-|-x--x--x-x-x-X-6---6---6---6-| 
A|-4--4--x-4-x-4-2--2------2---|-4--4--x-4-x-4-4---4---4---4-| 
E|-2---------------------------|-2---------------------------| 
   day                  Another day                    
                    
   F# 
e|-----------------------------|-----------------------------| 
B|-----------------------------|-----------------------------| 
G|-----------------------------|-----------------------------| 
D|-4---------------------------|-4---------------------------| 
A|-4---------------------------|-4---------------------------| 
E|-2---------------------------|-2---------------------------| 



************************* 

v - vibrato 
b - bend  
r - release bend 
/ - slide up 
\ -  slide down  
x - muted/dead note  

************************* 
		  

Full key step upFull key step up
Half key step upHalf key step up
Half key step downHalf key step down
Full key step downFull key step down
auto scroll beats size up size down change color hide chords drawings
tab show chords e-chords YouTube Clip e-chords hide all tabs e-chords go to top tab

share