The Megas

Man On Fire

The Megas

tabs

by  VSWORLD

save to print version add songbook text version e-mail correct tuner
chordsukulelecavacokeyboardtabbassdrumsharmonicaflute Guitar Pro
close

there isn't a video lesson for this song

chords

Man On Fire

	  		
Main Riff (played on Bass, still works with guitar) 
--------------------------------------------------- 
--------------------------------------------------- 
------7-5-6-7--------------5-3-4-5----------------- 
--------------7-6-5-44-------------5-4-3-22-------- 
--5-5------------------3-3------------------------- 
--------------------------------------------------- 

End of Riff 
------------------------------------------------ 
------------------------------------------------ 
---3-3--3-5-5--3-3-3-3--5----------------------- 
------------------------------------------------ 
------------------------------------------------ 
------------------------------------------------ 

Repeat until Chorus 

Chorus (Part 1) 
------------------------------------------------ 
------------------------------------------------ 
-3--3---5--5--5--5---7--7--7--7--7--7----------- 
-3--3---5--5--5--5---7--7--7--7--7--7----------- 
-1--1---3--3--3--3---5--5--5--5--5--5-----------    x2 
------------------------------------------------ 

Chorus (Part 2) 
-------------------------------------------------------------------------------------------------- 
-------------------------------------------------------------------------------------------------- 
-3--3---5--5--5--5-------------------------3--3---5--5--5--5----7--7--7--7--7--7--7--7------------ 
-3--3---5--5--5--5---3--3---5--5--5--5-----3--3---5--5--5--5----7--7--7--7--7--7--7--7------------ 
-1--1---3--3--3--3---3--3---5--5--5--5-----1--1---3--3--3--3----5--5--5--5--5--5--5--5------------ 
---------------------1--1---3--3--3--3------------------------------------------------------------ 

Post-Chorus (Part 1) 
--------------------------------------------------------------------------------------5-------------------- 
--10----10-10-10--8----8-----8-8--10-8--------------------------------------------5-6--------------6-5----- 
--------------------10-----------------9-10-------------7--------------------7--7-------7----5--7-----7-5-- 
------------------------------------------------------7---7---5-7-5--------7---------------7--------------- 
-------------------------------------------------5--8-----------------5--8--------------------------------- 
----------------------------------------------------------------------------------------------------------- 

Post-Chorus (Part 2) 
----------------------------------------------------------------------------------------------------------- 
--10----10-10-10--8----8-----8-8--10-8--------------------------------------------------------------------- 
--------------------10-----------------9-10-------------7----------------------3-3--3-5-5--3-3-3-3--5------ 
------------------------------------------------------7---7---5-7-5--------7------------------------------- 
-------------------------------------------------5--8-----------------5--8--------------------------------- 
----------------------------------------------------------------------------------------------------------- 



Breakdown Solo (This is just the last bit of Post-Chorus part 1 slowed down) 
--------------------------------------5-------------------- 
----------------------------------5-6--------------6-5----- 
--------7--------------------7--7-------7----5--7-----7-5-- 
------7---7---5-7-5--------7---------------7--------------- 
-5--8-----------------5--8---------------------------------  x2 
----------------------------------------------------------- 

Breakdown Solo Ending 
----------------------------------------------------------- 
----------------------------------------------------------- 
----------------------------------------------------------- 
------------5---------------------------------------------- 
---7--6--7----7-----7-------6----7--6-5-------------------- 
-----------------------------------------------------------  Then into the Chorus again 

Ending  



----------------------------------------------------------- 
----------------------------------------------------------- 
-3--3--x--x-----5--5--x--x---7--7--x--X--10--10--x--------- 
-3--3--x--x-----5--5--x--X---7--7--x--X--10--10--x--------- 
-1--1--x--x-----3--3--x--x---5--5--x--x--8---8---x--------- 
----------------------------------------------------------- 

----------------------------------------------------------- 
----------------------------------------------------------- 
-3--3--x--x-----5--5--x--x---7--7--x--X--7--7--7-5--------- 
-3--3--x--x-----5--5--x--X---7--7--x--X--7--7--7-5--------- 
-1--1--x--x-----3--3--x--x---5--5--x--x--5--5--5-3--------- 
----------------------------------------------------------- 

----------------------------------------------------------- 
----------------------------------------------------------- 
-3--3--x--x-----5--5--x--x--------------------------------- 
-3--3--x--x-----5--5--x--X-----3--3--x--X-----5--5--x--x--- 
-1--1--x--x-----3--3--x--x-----3--3--x--x-----5--5--x--x--- 
-------------------------------1--1--x--x-----3--3--x--x--- 


----------------------------------------------------------- 
----------------------------------------------------------- 
-3--3--x--x-----5--5--x--x---7--7--7--7--7--7--7--7--7----- 
-3--3--x--x-----5--5--x--X---7--7--7--7--7--7--7--7--7----- 
-1--1--x--x-----3--3--x--x---5--5--5--5--5--5--5--5--5----- 
----------------------------------------------------------- 
		  

See also:

tabs Deep Purple - Perfect Strangers tabs Deep Purple - Smoke on the water (intro) tabs Ira! - Nucleo De Base tabs Deep Purple - Smoke on the Water (solo) tabs Ira! - Flerte Fatal (intro e solo) tabs Deep Purple - Smoke On The Water
e-chords

Other versions:

tabs Dj 3d - Man On Fire tabs Edward Sharpe And The Magnetic Zeros - Man On Fire tabs The Megas - Man On Fire
auto scroll beats size up size down change color hide chords drawings
tab show chords e-chords YouTube Clip e-chords hide all tabs e-chords go to top tab

share