The Lemonheads

Sneakyville

The Lemonheads

tabs

by  EDSOOLIVEIRA

save to print version add songbook text version e-mail correct tuner
chordsukulelecavacokeyboardtabbassdrumsharmonicaflute Guitar Pro
close

there isn't a video lesson for this song

chords

Sneakyville

	  		

  Intro 

   Dmaj7 
e|----------------------------------------------------------| 
B|-7--------------------------------------------------------| 
G|-6--------------------------------------------------------| 
D|-7---one slow strum and allow to feedback-----------------| 
A|-5--------------------------------------------------------| 
E|-5--------------------------------------------------------| 
      I can't even live in your deserts 

Bass enters 0:08. Guitar enters on the D# chord 

                                 D#      D 
e|-----------------------------------------------| 
B|-----------------------------------------------| 
G|-------------------------------8-8-8-8-7-7-7-7-| 
D|-------------------------------8-8-8-8-7-7-7-7-| 
A|-----3---------3--------3------6-6-6-6-5-5-5-5-| 
E|-5-----3---5-----3--5-----3--------------------| 

   A   C  G   A  C  G  A   C#    D#      D 
e|-----------------------------------------------| 
B|-----------------------------------------------| 
G|-------------------------------8-8-8-8-7-7-7-7-| 
D|-7-7-10-5--7-7-10-5--7-7-11----8-8-8-8-7-7-7-7-| 
A|-7-7-10-5--7-7-10-5--7-7-11----6-6-6-6-5-5-5-5-| 
E|-5-5-8--3--5-5-8--3--5-5-9---------------------| 


  Verse 

   A   C  G   A  C  G  A   C#    D#      D 
e|-----------------------------------------------| 
B|-----------------------------------------------| 
G|-------------------------------8-8-8-8-7-7-7-7-| 
D|-7-7-10-5--7-7-10-5--7-7-11----8-8-8-8-7-7-7-7-| 
A|-7-7-10-5--7-7-10-5--7-7-11----6-6-6-6-5-5-5-5-| 
E|-5-5-8--3--5-5-8--3--5-5-9---------------------| 
   I'm a God You're a God We're Gods 

   A   C  G   A  C  G  A   C#    D#      D 
e|-----------------------------------------------| 
B|-----------------------------------------------| 
G|-------------------------------8-8-8-8-7-7-7-7-| 
D|-7-7-10-5--7-7-10-5--7-7-11----8-8-8-8-7-7-7-7-| 
A|-7-7-10-5--7-7-10-5--7-7-11----6-6-6-6-5-5-5-5-| 
E|-5-5-8--3--5-5-8--3--5-5-9---------------------| 
   How many times do I have to die for your sins 


  Chorus 

Just a note regarding that F# chord; at this point the song is rattling along at a fair old pace and 
because of this it's a little unclear if this is the exact chord played. My best guess is that it starts  
in the F# position and slides very quickly up and down whilst frantically strumming. 

   E   B     E   F#   E   B     C 
e|---------------------------------------------| 
B|---------------------------------------------| 
G|-9-9-------9-9-11/\-9-9----------------------| 
D|-9-9-9-9-9-9-9-11/\-9-9-9-9-9-10-10-10-10-10-| 
A|-7-7-9-9-9-7-7-9-/\-7-7-9-9-9-10-10-10-10-10-| 
E|-----7-7-7--------------7-7-7-8--8--8--8--8--| 
   Sneakyville sneaking up through the courtroom sneaking up round the jail cell 

   E   B     E   F#   E   B     G# 
e|----------------------------------------| 
B|----------------------------------------| 
G|-9-9-------9-9-11/\-9-9-----------------| 
D|-9-9-9-9-9-9-9-11/\-9-9-9-9-9-6-6-6-6-6-| 
A|-7-7-9-9-9-7-7-9-/\-7-7-9-9-9-6-6-6-6-6-| 
E|-----7-7-7--------------7-7-7-4-4-4-4-4-| 
  Sneaking through the courtyard *trails off in to mumbles* Y'know? 


  Verse 

   A   C  G   A  C  G  A   C#    D#      D 
e|-----------------------------------------------| 
B|-----------------------------------------------| 
G|-------------------------------8-8-8-8-7-7-7-7-| 
D|-7-7-10-5--7-7-10-5--7-7-11----8-8-8-8-7-7-7-7-| 
A|-7-7-10-5--7-7-10-5--7-7-11----6-6-6-6-5-5-5-5-| 
E|-5-5-8--3--5-5-8--3--5-5-9---------------------| 
                                 Sneakyville 

   A   C  G   A  C  G  A   C#    D#      D 
e|-----------------------------------------------| 
B|-----------------------------------------------| 
G|-------------------------------8-8-8-8-7-7-7-7-| 
D|-7-7-10-5--7-7-10-5--7-7-11----8-8-8-8-7-7-7-7-| 
A|-7-7-10-5--7-7-10-5--7-7-11----6-6-6-6-5-5-5-5-| 
E|-5-5-8--3--5-5-8--3--5-5-9---------------------| 
                                 Sneakyville 

  Chorus 

   E   B     E   F#   E   B     C 
e|---------------------------------------------| 
B|---------------------------------------------| 
G|-9-9-------9-9-11/\-9-9----------------------| 
D|-9-9-9-9-9-9-9-11/\-9-9-9-9-9-10-10-10-10-10-| 
A|-7-7-9-9-9-7-7-9-/\-7-7-9-9-9-10-10-10-10-10-| 
E|-----7-7-7--------------7-7-7-8--8--8--8--8--| 
                           Whaaaaaaaa 

   E   B     E   F#   E   B     G# 
e|----------------------------------------| 
B|----------------------------------------| 
G|-9-9-------9-9-11/\-9-9-----------------| 
D|-9-9-9-9-9-9-9-11/\-9-9-9-9-9-6-6-6-6-6-| 
A|-7-7-9-9-9-7-7-9-/\-7-7-9-9-9-6-6-6-6-6-| 
E|-----7-7-7--------------7-7-7-4-4-4-4-4-| 


  Middle 

               G A A#/B E 
e|-----------------------------------------------------| 
B|-12--------------------------------------------------| 
G|-14b16-----------------------------------------------| 
D|-------------5-7-8-9-9-9-9-9-9-9-9-9-9-9-9-9-9-9-9-9-| 
A|-------------5-7-8-9-7-7-7-7-7-7-7-7-7-7-7-7-7-7-7-7-| 
E|-------------3-5-6-7-0-0-0-0-0-0-0-0-0-0-0-0-0-0-0-0-| 
                                       how many times 

   G A A#/B E 
e|-----------------------------------------| 
B|-----------------------------------------| 
G|-----------------------------------------| 
D|-5-7-8-9-9-9-9-9-9-9-9-9-9-9-9-9-9-9-9-9-| 
A|-5-7-8-9-7-7-7-7-7-7-7-7-7-7-7-7-7-7-7-7-| 
E|-3-5-6-7-0-0-0-0-0-0-0-0-0-0-0-0-0-0-0-0-| 
   do I gotta die 

   G A A#/B E                                 G A A#/B E 
e|-----------------------------------------|-----------| 
B|-----------------------------------------|-----------| 
G|-----------------------------------------|-----------| 
D|-5-7-8-9-9-9-9-9-9-9-9-9-9-9-9-9-9-9-9-9-|-5-7-8-9-9-| 
A|-5-7-8-9-7-7-7-7-7-7-7-7-7-7-7-7-7-7-7-7-|-5-7-8-9-7-| 
E|-3-5-6-7-0-0-0-0-0-0-0-0-0-0-0-0-0-0-0-0-|-3-5-6-7-0-| 
    *mumbling and snarling*         I'm getting tired 


  Outro 

   A   C  G  A   C  G  A   C#    D#      D 
e|-----------------------------------------------| 
B|-----------------------------------------------| 
G|-------------------------------8-8-8-8-7-7-7-7-| 
D|-7-7-10-5--7-7-10-5--7-7-11----8-8-8-8-7-7-7-7-| 
A|-7-7-10-5--7-7-10-5--7-7-11----6-6-6-6-5-5-5-5-| 
E|-5-5-8--3--5-5-8--3--5-5-9---------------------| 

   A   C  G  A   C  G  A   C#    D#      D 
e|-----------------------------------------------| 
B|-----------------------------------------------| 
G|-------------------------------8-8-8-8-7-7-7-7-| 
D|-7-7-10-5--7-7-10-5--7-7-11----8-8-8-8-7-7-7-7-| 
A|-7-7-10-5--7-7-10-5--7-7-11----6-6-6-6-5-5-5-5-| 
E|-5-5-8--3--5-5-8--3--5-5-9---------------------| 

   E   B     E   F#   E   B     C 
e|---------------------------------------------| 
B|---------------------------------------------| 
G|-9-9-------9-9-11/\-9-9----------------------| 
D|-9-9-9-9-9-9-9-11/\-9-9-9-9-9-10-10-10-10-10-| 
A|-7-7-9-9-9-7-7-9-/\-7-7-9-9-9-10-10-10-10-10-| 
E|-----7-7-7--------------7-7-7-8--8--8--8--8--| 

   E   B     E   F#   E   B     G# 
e|----------------------------------------| 
B|----------------------------------------| 
G|-9-9-------9-9-11/\-9-9-----------------| 
D|-9-9-9-9-9-9-9-11/\-9-9-9-9-9-6-6-6-6-6-| 
A|-7-7-9-9-9-7-7-9-/\-7-7-9-9-9-6-6-6-6-6-| 
E|-----7-7-7--------------7-7-7-4-4-4-4-4-| 


*************************************** 

/ - slide up 
\ - slide down 

*************************************** 
		  

Full key step upFull key step up
Half key step upHalf key step up
Half key step downHalf key step down
Full key step downFull key step down
auto scroll beats size up size down change color hide chords drawings
tab show chords e-chords YouTube Clip e-chords hide all tabs e-chords go to top tab

share