The Lemonheads

6ix Tab

The Lemonheads

Difficulty: nolevelnolevel

by jov%2Dcorrea

tuner correct add songbook print version text version save to e-mail
chordsukulelecavacokeyboardtabbassdrumsharmonicsflute Guitar Pro
close

there isn't a video lesson for this song

request
chords

6ix

Key:  F# More
6ix Key C#C#
6ix Key DD
6ix Key D#D#
6ix Key EE(one step down)
6ix Key FF(half step down)
6ix Key F#F#(original key)
6ix Key GG(half step up)
6ix Key G#G#(one step up)
6ix Key AA
6ix Key A#A#
6ix Key BB
6ix Key CC
  		'6ix' by The Lemonheads 
------------------------ 
from the 1996 album Car Button Cloth 
Tab by James Glover (Sebadonut) 

Standard Tuning  


  Intro 
    
  F# G                 F# G                 F# G 
e|---------------------------------------------------------------| 
B|---------------------------------------------------------------| 
G|---------------------------------------------------------------| 
D|-4/5--5-5-----5\------4/5--5-5-----5\------4/5--5-5-----5\-----| 
A|-4/5--5-5-----5\------4/5--5-5-----5\------4/5--5-5-----5\-----| 
E|-2/3--3-3-------------2/3--3-3-------------2/3--3-3------------| 


  Verse 

   G                            D        B      F# G 
e|-3--------------------------------------------------------------| 
B|-3--------------------------------------------------------------| 
G|-4----------------------------7--7-7-7-4---4--------------------| 
D|-5----------------------------7--7-7-7-4---4---4/5--5-5---5-5-5-| 
A|-5----------------------------5--5-5-5-2---2---4/5--5-5---5-5-5-| 
E|-3---------------------------------------------2/3--3-3---3-3-3-| 
  Here comes Gwyneths head in a box  

   G                            D        B      F# G 
e|-3--------------------------------------------------------------| 
B|-3--------------------------------------------------------------| 
G|-4----------------------------7--7-7-7-4---4--------------------| 
D|-5----------------------------7--7-7-7-4---4---4/5--5-5---5-5-5-| 
A|-5----------------------------5--5-5-5-2---2---4/5--5-5---5-5-5-| 
E|-3---------------------------------------------2/3--3-3---3-3-3-| 
       Gwyneths head in a box 
   G                            D        B      F# G 
e|-3--------------------------------------------------------------| 
B|-3--------------------------------------------------------------| 
G|-4----------------------------7--7-7-7-4---4--------------------| 
D|-5----------------------------7--7-7-7-4---4---4/5--5-5---5-5-5-| 
A|-5----------------------------5--5-5-5-2---2---4/5--5-5---5-5-5-| 
E|-3---------------------------------------------2/3--3-3---3-3-3-| 
       Soupy sales my friend  

   G                            D        B      F# G 
e|-3--------------------------------------------------------------| 
B|-3--------------------------------------------------------------| 
G|-4----------------------------7--7-7-7-4---4--------------------| 
D|-5----------------------------7--7-7-7-4---4---4/5--5-5---------| 
A|-5----------------------------5--5-5-5-2---2---4/5--5-5---------| 
E|-3---------------------------------------------2/3--3-3---------| 
     Here comes Gwyneths head 


  Break 

The bend in the second bar is optional. I like to mix things up a bit and sometimes 
emulate some of the atmospheric bends on the recording.  


   A     G  A      G  A  B  C     E        A     G  A      G  A  B  C     E 
e|---------------------------------------|---------------------------------------| 
B|---------------------------------------|--5------------------------------------| 
G|-----------------------4--5------------|--7b9v---------------------------------| 
D|-7-----5--7------5--7--4--5-----2------|---------------------------------------| 
A|-7-----5--7------5--7--2--3-----2------|---------------------------------------| 
E|-5-----3--5------3--5-----------0------|---------------------------------------| 

   A     G  A      G  A  B  C     E        A     G  A      G  A  B  C     E 
e|---------------------------------------|---------------------------------------| 
B|---------------------------------------|---------------------------------------| 
G|-----------------------4--5------------|-----------------------4--5------------| 
D|-7-----5--7------5--7--4--5-----2------|-7-----5--7------5--7--4--5-----2------| 
A|-7-----5--7------5--7--2--3-----2------|-7-----5--7------5--7--2--3-----2------| 
E|-5-----3--5------3--5-----------0------|-5-----3--5------3--5-----------0------| 

   G                                        G 
e|-3--------------------------------------|-3--------------------------------------| 
B|-3--------------------------------------|-3--------------------------------------| 
G|-4--------------------------------------|-4--------------------------------------| 
D|-5--------------------------------------|-5--------------------------------------| 
A|-5--------------------------------------|-5--------------------------------------| 
E|-3--------------------------------------|-3--------------------------------------| 

   G                                        G 
e|-3--------------------------------------|-3--------------------------------------| 
B|-3--------------------------------------|-3--------------------------------------| 
G|-4--------------------------------------|-4--------------------------------------| 
D|-5--------------------------------------|-5--------------------------------------| 
A|-5--------------------------------------|-5--------------------------------------| 
E|-3--------------------------------------|-3--------------------------------------| 


  Verse 

   G                            D        B      F# G 
e|-3--------------------------------------------------------------| 
B|-3--------------------------------------------------------------| 
G|-4----------------------------7--7-7-7-4---4--------------------| 
D|-5----------------------------7--7-7-7-4---4---4/5--5-5---5-5-5-| 
A|-5----------------------------5--5-5-5-2---2---4/5--5-5---5-5-5-| 
E|-3---------------------------------------------2/3--3-3---3-3-3-| 
  Here comes Gwyneths head in a box  

   G                            D        B      F# G 
e|-3--------------------------------------------------------------| 
B|-3--------------------------------------------------------------| 
G|-4----------------------------7--7-7-7-4---4--------------------| 
D|-5----------------------------7--7-7-7-4---4---4/5--5-5---5-5-5-| 
A|-5----------------------------5--5-5-5-2---2---4/5--5-5---5-5-5-| 
E|-3---------------------------------------------2/3--3-3---3-3-3-| 
       Gwyneths head in a box 
   G                            D        B      F# G 
e|-3--------------------------------------------------------------| 
B|-3--------------------------------------------------------------| 
G|-4----------------------------7--7-7-7-4---4--------------------| 
D|-5----------------------------7--7-7-7-4---4---4/5--5-5---5-5-5-| 
A|-5----------------------------5--5-5-5-2---2---4/5--5-5---5-5-5-| 
E|-3---------------------------------------------2/3--3-3---3-3-3-| 
       Skip Stevensons dead  

   G                            D        B      F# G 
e|-3--------------------------------------------------------------| 
B|-3--------------------------------------------------------------| 
G|-4----------------------------7--7-7-7-4---4--------------------| 
D|-5----------------------------7--7-7-7-4---4---4/5--5-5---------| 
A|-5----------------------------5--5-5-5-2---2---4/5--5-5---------| 
E|-3---------------------------------------------2/3--3-3---------| 
     Here comes Gwyneths head 


  Break 

   A     G  A      G  A  B  C     E        A     G  A      G  A  B  C     E 
e|---------------------------------------|---------------------------------------| 
B|---------------------------------------|--5------------------------------------| 
G|-----------------------4--5------------|--7b9v---------------------------------| 
D|-7-----5--7------5--7--4--5-----2------|---------------------------------------| 
A|-7-----5--7------5--7--2--3-----2------|---------------------------------------| 
E|-5-----3--5------3--5-----------0------|---------------------------------------| 

   A     G  A      G  A  B  C     E        A     G  A      G  A  B  C     E 
e|---------------------------------------|---------------------------------------| 
B|---------------------------------------|---------------------------------------| 
G|-----------------------4--5------------|-----------------------4--5------------| 
D|-7-----5--7------5--7--4--5-----2------|-7-----5--7------5--7--4--5-----2------| 
A|-7-----5--7------5--7--2--3-----2------|-7-----5--7------5--7--2--3-----2------| 
E|-5-----3--5------3--5-----------0------|-5-----3--5------3--5-----------0------| 


  Middle 

   D      G         F                      D      G         F 
e|------------------1---1-1-1-1-1-1-1----|------------------1---1-1-1-1-1-1-1----| 
B|-3---3------------1---1-1-1-1-1-1-1----|-3---3------------1---1-1-1-1-1-1-1----| 
G|-2---2--0---0--0--2---2-2-2-2-2-3-3----|-2---2--0---0--0--2---2-2-2-2-2-3-3----| 
D|-0---0--0---0--0--3---3-3-3-3-3-3-3----|-0---0--0---0--0--3---3-3-3-3-3-3-3----| 
A|--------x---x--x--3---3-3-3-3-3-3-3----|--------x---x--x--3---3-3-3-3-3-3-3----| 
E|--------3---3--3--1---1-1-1-1-1-1-1----|--------3---3--3--1---1-1-1-1-1-1-1----| 
  Come on and ...                         all flesh is grass you gotta want it  

   D      G         F                      D      G         F               F# 
e|------------------1---1-1-1-1-1-1-1----|------------------1---1-1-1-1-1-1-2----| 
B|-3---3------------1---1-1-1-1-1-1-1----|-3---3------------1---1-1-1-1-1-1-2----| 
G|-2---2--0---0--0--2---2-2-2-2-2-3-3----|-2---2--0---0--0--2---2-2-2-2-2-3-3----| 
D|-0---0--0---0--0--3---3-3-3-3-3-3-3----|-0---0--0---0--0--3---3-3-3-3-3-3-4----| 
A|--------x---x--x--3---3-3-3-3-3-3-3----|--------x---x--x--3---3-3-3-3-3-3-4----| 
E|--------3---3--3--1---1-1-1-1-1-1-1----|--------3---3--3--1---1-1-1-1-1-1-2----| 
  come on and...                           all flesh is grass  

   G                G                      G                G 
e|-3----------------3--------------------|-3----------------3--------------------| 
B|-3----------------3--------------------|-3----------------3--------------------| 
G|-4----------------4--------------------|-4----------------4--------------------| 
D|-5----------------5--------------------|-5----------------5--------------------| 
A|-5----------------5--------------------|-5----------------5--------------------| 
E|-3----------------3--------------------|-3----------------3--------------------| 


  Verse 

   G                            D        B      F# G 
e|-3--------------------------------------------------------------| 
B|-3--------------------------------------------------------------| 
G|-4----------------------------7--7-7-7-4---4--------------------| 
D|-5----------------------------7--7-7-7-4---4---4/5--5-5---5-5-5-| 
A|-5----------------------------5--5-5-5-2---2---4/5--5-5---5-5-5-| 
E|-3---------------------------------------------2/3--3-3---3-3-3-| 
  Here comes Gwyneths head in a box  

   G                            D        B      F# G 
e|-3--------------------------------------------------------------| 
B|-3--------------------------------------------------------------| 
G|-4----------------------------7--7-7-7-4---4--------------------| 
D|-5----------------------------7--7-7-7-4---4---4/5--5-5---5-5-5-| 
A|-5----------------------------5--5-5-5-2---2---4/5--5-5---5-5-5-| 
E|-3---------------------------------------------2/3--3-3---3-3-3-| 
       Gwyneths head in a box 

   G                            D        B      F# G 
e|-3--------------------------------------------------------------| 
B|-3--------------------------------------------------------------| 
G|-4----------------------------7--7-7-7-4---4--------------------| 
D|-5----------------------------7--7-7-7-4---4---4/5--5-5---5-5-5-| 
A|-5----------------------------5--5-5-5-2---2---4/5--5-5---5-5-5-| 
E|-3---------------------------------------------2/3--3-3---3-3-3-| 
       Skip Stevenson is dead  

   G                            D        B      F# G     F# G 
e|-3--------------------------------------------------------------| 
B|-3--------------------------------------------------------------| 
G|-4----------------------------7--7-7-7-4---4--------------------| 
D|-5----------------------------7--7-7-7-4---4---4/5--5-5-4/5-5-5-| 
A|-5----------------------------5--5-5-5-2---2---4/5--5-5-4/5-5-5-| 
E|-3---------------------------------------------2/3--3-3-2/3-3-3-| 
     Here comes Gwyneths head 

   D        B      F# G     F# G       D        B      F# G     F# G 
e|-----------------------------------|-----------------------------------| 
B|-----------------------------------|-----------------------------------| 
G|-7--7-7-7-4---4--------------------|-7--7-7-7-4---4--------------------| 
D|-7--7-7-7-4---4---4/5--5-5-4/5-5-5-|-7--7-7-7-4---4---4/5--5-5-4/5-5-5-| 
A|-5--5-5-5-2---2---4/5--5-5-4/5-5-5-|-5--5-5-5-2---2---4/5--5-5-4/5-5-5-| 
E|------------------2/3--3-3-2/3-3-3-|------------------2/3--3-3-2/3-3-3-| 
                                head                          head  

   D        B      F# G     F# G 
e|-----------------------------------| 
B|-----------------------------------| 
G|-7--7-7-7-4---4--------------------| 
D|-7--7-7-7-4---4---4/5--5-5-4/5-5-5-| 
A|-5--5-5-5-2---2---4/5--5-5-4/5-5-5-| 
E|------------------2/3--3-3-2/3-3-3-| 
                        head  

  Break 

   A     G  A      G  A  B  C     E        A     G  A      G  A  B  C     E 
e|---------------------------------------|---------------------------------------| 
B|---------------------------------------|---------------------------------------| 
G|-----------------------4--5------------|-----------------------4--5------------| 
D|-7-----5--7------5--7--4--5-----2------|-7-----5--7------5--7--4--5-----2------| 
A|-7-----5--7------5--7--2--3-----2------|-7-----5--7------5--7--2--3-----2------| 
E|-5-----3--5------3--5-----------0------|-5-----3--5------3--5-----------0------| 

   A     G  A      G  A  B  C     E        A     G  A      G  A  B  C     E 
e|---------------------------------------|---------------------------------------| 
B|---------------------------------------|---------------------------------------| 
G|-----------------------4--5------------|-----------------------4--5------------| 
D|-7-----5--7------5--7--4--5-----2------|-7-----5--7------5--7--4--5-----2------| 
A|-7-----5--7------5--7--2--3-----2------|-7-----5--7------5--7--2--3-----2------| 
E|-5-----3--5------3--5-----------0------|-5-----3--5------3--5-----------0------| 


  Outro 

Sounds like some kind of wah/flange effect which I am unable to emulate so I  
just hammer at the G power chord.  

   G     
e|---------------------------------------|---------------------------------------| 
B|---------------------------------------|---------------------------------------| 
G|---------------------------------------|---------------------------------------| 
D|-5-----5-----------5-----5-------------|-5-----5-----------5-----5-------------| 
A|-5-----5-----------5-----5-------------|-5-----5-----------5-----5-------------| 
E|-3-----3-----------3-----3-------------|-3-----3-----------3-----3-------------| 

e|---------------------------------------| 
B|---------------------------------------| 
G|---------------------------------------| 
D|-5-----5-----------5-----5-------------| 
A|-5-----5-----------5-----5-------------| 
E|-3-----3-----------3-----3-------------| 


****************************************** 

/ - slide up 
\ - slide down 
v - vibrato 
b - bend 
r - release  
x - muted/dead note 

****************************************** 
	  

Full key step upFull key step up
Half key step upHalf key step up
Half key step downHalf key step down
Full key step downFull key step down
Search Paypal
auto scroll beats size up size down change color hide chords drawings
tab show chords e-chords YouTube Clip e-chords hide all tabs e-chords go to top tab

share with facebook