The Kooks

Naive (ver. 2)

The Kooks

tabs Beginner beginner

by  PIETI101

save to print version add songbook text version e-mail correct tuner
chordsukulelecavacokeyboardtabbassdrumsharmonicaflute Guitar Pro
close

there isn't a video lesson for this song

chords

Naive (ver. 2)

	  		Bass comes in bout 18 secondz 

Start Bit 
|-------------------------------------------| 
|-------------------------------------------| 
|--11------slide down to--------4-----------| 
|---------------------------------------4---| 

Verse 
|---------------------------------| 
|---------------------------------| 
|--------------------2------------| 
|--4----0----2---------2--4-------|   

Chorus 
|----------------|----------------|--------------|---------------|---------| 
|----------------|----------------|--------------|---------------|---------| 
|------2---------|------2---------|--------------|---------2 ----|---------| 
|--0---------2---|--0---------2---|--0----4---2--|--0--------2---|---0-----| 

Middle Bit  
|-----------------------------------| 
|-----------------------------------| 
|-----------------------------------| 
|--11------slide down to--------4---| 

Guitar Bit 

|--------------------------------------------------| 
|--------------------------------------------------| 
|--------------------------------------------------| 
|--0----2(slide up)----4-4(slide up)------------7--|  


End Bit 
|--------------------| 
|--------------------| 
|----------------2---| 
|--0---2---4---------| 

Start Bit x 1 
Verse x 2 
Chorus x 1 
Verse x 3 
Chorus x 1 
Middle Bit x 1 
Verse x 2 
Chorus x 1 
End Bit x 8 


		  

See also:

tabs JerryC - Canon rock tabs Chris Brown - Say goodbye (intro) tabs Plain White T's - Hey There Delilah (ver. 2) tabs Lady Gaga - Telephone tabs Matisyahu - Youth tabs Eric Johnson - SRV
e-chords

Other versions:

tabs The Kooks - Naive tabs Unloco - naive tabs The Kooks - Naive (ver. 2) tabs Anberlin - Naive orleans tabs A Day to Remember - Naivety
auto scroll beats size up size down change color hide chords drawings
tab show chords e-chords YouTube Clip e-chords hide all tabs e-chords go to top tab

share