The Kills

Dna

The Kills

tabs

by  ANDRSOUZA

save to print version add songbook text version e-mail correct tuner
chordsukulelecavacokeyboardtabbassdrumsharmonicaflute Guitar Pro
close

there isn't a video lesson for this song

chords

Dna

	  		

Intro: 
e|--------------------------------------------------------------------------------------| 
B|--------------------------------------------------------------------------------------| 
G|--------------------------------------------------------------------------------------| 
D|--------------------------------------------------------------------------------------| 
A|---0--0-0-0--0-0-0-3----0--0-0-0--0-0-0-3---------------------------------------------| 
E|---------------------------------------------0--0-0-0--0-0-0-3----0--0-0-0--0-0-0-3---| 

Verse1: 
e|---------------------------------------------------------| 
B|---10----10----10-8-10-8-/12---------------------8-------| 
G|------------------------------9-9----9-9-9-9--9----7-9---| 
D|---------------------------------------------------------| 
A|---------------------------------------------------------| 
E|---------------------------------------------------------| 

e|------------------------------------------------------------------| 
B|---10----8-10----------------10-10-8-/12---------10-8-------------| 
G|------------------------------------------9-9---------9-7-7/9-9---| 
D|------------------------------------------------------------------| 
A|---------------0-0-0--0-0-0---------------------------------------| 
E|------------------------------------------------------------------| 

e|----------------------------------------------7*-7*-7*--7*--------| 
B|---10----------------10-8--------------8-------------------8------| 
G|--------------------------9-7-9-9-9-9----7-9-----------------7-9--| 
D|------------------------------------------------------------------| 
A|-------0-0-0--0-0-0-----------------------------------------------| 
E|------------------------------------------------------------------| 

e|---------------------------------------------------7*-7*-7*--7*---------| 
B|---10-8---10-8-10-8---------------------------------------------8-------| 
G|--------9-----------9----------------9-9-9-9--7-9-----------------7-9---| 
D|------------------------------------------------------------------------| 
A|-----------------------0-0-0--0-0-0-------------------------------------| 
E|------------------------------------------------------------------------| 

Chorus: 
e|--------------------------------------------------------------------------------------| 
B|--------------------------------------------------------------------------------------| 
G|--------------------------------------------------------------------------------------| x2 
D|--------------------------------------------------------------------------------------| 
A|---0--0-0-0--0-0-0-3----0--0-0-0--0-0-0-3---------------------------------------------| 
E|---------------------------------------------0--0-0-0--0-0-0-3----0--0-0-0--0-0-0-3---| 

Small piece in the end of Chorus: 
e|-------------| 
B|---8---------| 
G|-----7-9-7---| 
D|-------------| 
A|-------------| 
E|-------------| 

Verse2: 
e|---------------------------------------------------------------------------| 
B|---10----10-8-10-8-10---------10-8-10-8----------8-----------------8-------| 
G|----------------------------------------9--9-9-9---7-9--9-9-9--9-9---7-9---| 
D|---------------------------------------------------------------------------| 
A|-----------------------0-0-0-----------------------------------------------| 
E|---------------------------------------------------------------------------| 

e|-------------------------------------------------------------------------------| 
B|---10----8h10-8h10-8-10----8h10-8h10-8-/12--------------------10-8-------------| 
G|--------------------------------------------9-9--------------------9-7-7/9-9---| 
D|-------------------------------------------------------------------------------| 
A|-------------------------------------------------------------------------------| 
E|-------------------------------------------------0--0-0--0-0-------------------| 

e|---------------------------|  |-----------------------------| 
B|---10-8-------10-8---------|  |---10-8-------10-8-----------| 
G|--------9-7h9------9-------|x2|--------9-7h9------9---------|x2 
D|---------------------------|  |-----------------------------| 
A|---------------------0-0-0-|  |-----------------------------| 
E|---------------------------|  |---------------------0-0-0---| 

e|-----------------------------------------------------------------| 
B|---10-8-------10-8----------10-8-------------8-------------------| 
G|--------9-7h9------9-------------9-7--9-7-9----7-9--9--9b(x11)---| 
D|-----------------------------------------------------------------| 
A|---------------------0-0-0---------------------------------------| 
E|-----------------------------------------------------------------| 

Chorus: 
e|--------------------------------------------------------------------------------------| 
B|--------------------------------------------------------------------------------------| 
G|--------------------------------------------------------------------------------------| x2 
D|--------------------------------------------------------------------------------------| 
A|---0--0-0-0--0-0-0-3----0--0-0-0--0-0-0-3---------------------------------------------| 
E|---------------------------------------------0--0-0-0--0-0-0-3----0--0-0-0--0-0-0-3---| 

OK, this little piece from the end of Verse2 play on 2nd repeat on the middle of 3rd part.  
e|-----------------------| 
B|---8-------------------| 
G|-----7-9--9--9b(x11)---| 
D|-----------------------| 
A|-----------------------| 
E|-----------------------| 

Bridge: 
e|------------------------------------------------------------------------------------------------| 
B|------------------------------------------------------------------------------------------------| 
G|---xxxx---x--------------xxxx---x--------------xxxx---x--------------xxxx---x-------------------| 
D|---xxxx-5-x-5--5--5--5-5-xxxx-7-x-7--7--7--7-7-xxxx-5-x-5--5--5--5-5-xxxx-4-x-3--3--3--3-3--2---| 
A|---xxxx-3-x-3--3--3--3-3-xxxx-5-x-5--5--5--5-5-xxxx-3-x-3--3--3--3-3-xxxx-2-x-1--1--1--1-1--0---| 
E|---xxxx---x--------------xxxx---x--------------xxxx---x--------------xxxx---x-------------------| 

Interlude: 
e|-------------------------------7*-*7-7*-7*---------| 
B|---10-10-8-8-------------------------------8-------| 
G|-------------9-9-7-7-9--9-9------------------7-9---| 
D|---------------------------------------------------| 
A|---------------------------------------------------| 
E|---------------------------------------------------| 

Verse3: 
e|----------------------------------------------------------------------------| 
B|---10-8-------10-8----10-8-------10-8----------10-8---8---------------------| 
G|--------9-7h9------9-------9-7h9------9-------------9---9--9-9--9--9(x12)---| 
D|----------------------------------------------------------------------------| 
A|-----------------------------------------0-0-0------------------------------| 
E|----------------------------------------------------------------------------| 

e|---------------------------|  |-------------------------------------------------| 
B|---10-8-------10-8---------|  |---10-8-------10-8----------10-8-----------------| 
G|--------9-7h9------9-------|x2|--------9-7h9------9-------------9-7-9-7-9-7-9---| 
D|---------------------------|  |-------------------------------------------------| 
A|---------------------0-0-0-|  |-------------------------------------------------| 
E|---------------------------|  |---------------------0-0-0-----------------------| 

e|-------------------------------------------------------------------------| 
B|---10-8-------10-8----------10-8----------------8------------------------| 
G|--------9-7h9------9-------------9-7-9--9--9--9---7-9-------9--9b(x11)---| 
D|-------------------------------------------------------------------------| 
A|---------------------0-0-0-----------------------------------------------| 
E|------------------------------------------------------0-0-0--------------| 

Chorus: 
e|---------------------------------------------------------------------------------------------| 
B|---------------------------------------------------------------------------------------------| 
G|---------------------------------------------------------------------------------------------| 
D|---------------------x-x----------------------5--------------------xxxx----------------------| 
A|---0--0-0-0--0-0-0-3-x-x-5-0--0-0-0--0-0-0-3-----------------------xxxx----------------------| 
E|------------------------------------------------0--0-0-0--0-0-0-3--xxxx--0--0-0-0--0-0-0-3---| 

e|--------------------------------------------------------------------------------------| 
B|--------------------------------------------------------------------------------------| 
G|--------------------------------------------------------------------------------------| 
D|--------------------------------------------------------------------------------------| 
A|---0--0-0-0--0-0-0-3----0--0-0-0--0-0-0-3---------------------------------------------| 
E|---------------------------------------------0--0-0-0--0-0-0-3----0--0-0-0--0-0-0-3---| 

Somewhere in the middle of 3rd part: 
e|-------------| 
B|---12(x11)---| 
G|-------------| 
D|-------------| 
A|-------------| 
E|-------------| 

At the same time! 
Guitar1: 
e|--------------------------------------------------------------------------------------| 
B|--------------------------------------------------------------------------------------| 
G|--------------------------------------------------------------------------------------| x2 
D|--------------------------------------------------------------------------------------| 
A|---0--0-0-0--0-0-0-3----0--0-0-0--0-0-0-3---------------------------------------------| 
E|---------------------------------------------0--0-0-0--0-0-0-3----0--0-0-0--0-0-0-3---| 

Guitar2: 
e|-----------------------|  |-------------------------| 
B|---10-8-------10-8-----|  |---10-8------------------| 
G|--------9-7h9------9---|x3|--------9--7-9-7-9-7-9---| 
D|-----------------------|  |-------------------------| 
A|-----------------------|  |-------------------------| 
E|-----------------------|  |-------------------------| 

e|-----------------------|  |----------------| 
B|---10-8-------10-8-----|  |----------------| 
G|--------9-7h9------9---|x3|---9--9b(x11)---| 
D|-----------------------|  |----------------| 
A|-----------------------|  |----------------| 
E|-----------------------|  |----------------| 

Outro: 
e|--------------------------------------------------------------------------------------| 
B|--------------------------------------------------------------------------------------| 
G|--------------------------------------------------------------------------------------| 
D|--------------------------------------------------------------------------------------| 
A|---0--0-0-0--0-0-0-3----0--0-0-0--0-0-0-3---------------------------------------------| 
E|---------------------------------------------0--0-0-0--0-0-0-3----0--0-0-0--0-0-0-3---| 

e|----------------------------------------------------------------------------------------| 
B|--------------------------------------------------------------------------------8-------| 
G|----------------------------------------------------------------------------------7-9---| 
D|----------------------------------------------------------------------------------------| 
A|---0--0-0-0--0-0-0-3----0--0-0-0--0-0-0-3-----------------------------------------------| 
E|---------------------------------------------0--0-0-0--0-0-0-3----0--0-0-0--0-0---------| 

*********************************** 
| /   Slide up 
| h   Hummer-on 
| *   Harmonic 
| x   Dead note 
| b   Bend 
*********************************** 
		  

auto scroll beats size up size down change color hide chords drawings
tab show chords e-chords YouTube Clip e-chords hide all tabs e-chords go to top tab

share