The Jesus Lizard

Then Comes Dudley

The Jesus Lizard

tabs

by  BOMBAXXX

save to print version add songbook text version e-mail correct tuner
chordsukulelecavacokeyboardtabbassdrumsharmonicaflute Guitar Pro
close

there isn't a video lesson for this song

chords

Then Comes Dudley

	  		

Intro: 

Riff 1: 

e|-7--7--7--7--7--7--7--7--7--7--7--7--7--7\\9--9--| 
B|-12-12-12-12-12-12-12-12-12-12-12-12-12-12\14-14-| 
G|-------------------------------------------------| 
D|-------------------------------------------------| 
A|-------------------------------------------------| 
E|-------------------------------------------------| 

e|\10-10-10-10-10-10-10-10-10-10-10-10-10-10-10-10-| 
B|\15-15-15-15-15-15-15-15-15-15-15-15-15-15-15-15-| 
G|-------------------------------------------------| 
D|-------------------------------------------------| 
A|-------------------------------------------------| 
E|-------------------------------------------------| 

e|-6--6--6--6--6--6--6--6--6--6--6--6--6--6\\8--8--| 
B|-11-11-11-11-11-11-11-11-11-11-11-11-11-11\13-13-| 
G|-------------------------------------------------| 
D|-------------------------------------------------| 
A|-------------------------------------------------| 
E|-------------------------------------------------| 

e|\9--9--9--9--9--9--9--9--9--9--9--9--9--9--9--9--| 
B|\14-14-14-14-14-14-14-14-14-14-14-14-14-14-14-14-| 
G|-------------------------------------------------| 
D|-------------------------------------------------| 
A|-------------------------------------------------| 
E|-------------------------------------------------| 

Riff 2: 

e|----------------| 
B|----------------| 
G|----------------| 
D|-8\10----8\10---| 
A|-8\10----8\10---| 
E|-6\8-----6\8----| 

e|-------------------------------------------------------------------------| 
B|----------------14/13-------------14/13-------------14/13-------------14-| 
G|-------15/14-------------15/14-------------15/14-------------15/14-------| 
D|-------------------------------------------------------------------------| 
A|-12\13----12\13----12\13----12\13----12\13----12\13----12\13----12\13----| 
E|-------------------------------------------------------------------------| 

Riff 3: 

e|-------------11----11----------------11----11----| 
B|-------------11----11----------------11----11----| 
G|-12-12-12-12-12-12-12-12-12-12-12-12-12-12-12-12-| 
D|-14-14-14-14-14-14-14-14-14-14-14-14-14-14-14-14-| 
A|-13-13-13-13-13-13-13-13-13-13-13-13-13-13-13-13-| 
E|-------------------------------------------------| 

e|-------------11----11----------------11----11----| 
B|-------------11----11----------------11----11----| 
G|-12-12-12-12-12-12-12-12-12-12-12-12-12-12-12-12-| 
D|-14-14-14-14-14-14-14-14-14-14-14-14-14-14-14-14-| 
A|-13-13-13-13-13-13-13-13-13-13-13-13-13-13-13-13-| 
E|-------------------------------------------------| 

e|-------11----------11----------11----------11----| 
B|-------11----------11----------11----------11----| 
G|-12-12-12-12-12-12-12-12-12-12-12-12-12-12-12-12-| 
D|-14-14-14-14-14-14-14-14-14-14-14-14-14-14-14-14-| 
A|-13-13-13-13-13-13-13-13-13-13-13-13-13-13-13-13-| 
E|-------------------------------------------------| 

e|-11----11----------11----11----11----11-11-11-11-|-11/---| 
B|-11----11----------11----11----11----11-11-11-11-|-11/---| 
G|-12-12-12-12-12-12-12-12-12-12-12-12-12-12-12-12-|-12/---| 
D|-14-14-14-14-14-14-14-14-14-14-14-14-14-14-14-14-|-14/---| 
A|-13-13-13-13-13-13-13-13-13-13-13-13-13-13-13-13-|-13/---| 
E|-------------------------------------------------|-------| 

Verse: 

e|-----------------| 
B|-----------------| 
G|-----------------| 
D|-----------------| 
A|-----------------| 
E|-3p0-5p0-6p0-3p0-| 
p.m................ 

Chorus: 

e|-----------------------| 
B|-------------------8/--| 
G|-5---5-5---5-5/----8/--| 
D|-8---8-8---8-8/--------| 
A|-7---7-7---7-7/--------| 
E|-6---6-6---6-6/--------| 

Last Chorus: 

e|-----------------| 
B|-----------------| 
G|-----------------| 
D|-----------------| 
A|-----------------| 
E|-3p0-5p0-6p0-3p0-| 

S 
		  

See also:

tabs Red Hot Chili Peppers - Under The Bridge Acoustic tabs Paramore - Crushcrushcrush (Acoustic) tabs Red Hot Chili Peppers - Under The Bridge (ver. 2) tabs Ben Harper - The Woman in You tabs Red Hot Chili Peppers - Venice Queen tabs Red Hot Chili Peppers - Live in Slane Castle
e-chords

Other versions:

tabs The Jesus Lizard - Then Comes Dudley
auto scroll beats size up size down change color hide chords drawings
tab show chords e-chords YouTube Clip e-chords hide all tabs e-chords go to top tab

share