The Hives

Get Free

The Hives

tabs

by  RODR_AEH

save to print version add songbook text version e-mail correct tuner
chordsukulelecavacokeyboardtabbassdrumsharmonicaflute Guitar Pro
close

there isn't a video lesson for this song

chords

Get Free

	  		Intro Heavy Distortion 
---------------- 
---------------- 
---------------- 
----------------Play 3 times 
-5-55-5~5~5^-3-- 
---------------- 

---------------- 
---------------- 
-5555----------- 
-5555--5555----- 
-3333--5555----- 
-------3333----- 

Chorus 
------------------------- 
------------------------- 
------------------------- 
-5/7-5/7-5/7------------- 
-3/5-3/5-3/5--555-66-33-- 
--------------333-44-11-- 

Verses 
---------------- 
---------------- 
---------------- 
---------------- 
-5-55-5~5~5^-3-- 
----------------Play three times but  
play the first two muted 

-------------- 
-------------- 
-5555--------- 
-5555-5555---- 
-3333-5555---- 
------3333---- 

Fill 1 
----------- 
----------- 
---5-7-5--- 
----------- 
-5^--------play three times 
----------- 

Fill 2 
--------- 
--------- 
-7^~5---- 
------7-- 
-------8- 
---------play once 

Bridge 
--------------------- 
--------------------- 
--------------------- 
-77-556677----------- 
-55--------77-557788-play twice 
-----------55-------- 

----------------- 
----------------- 
----------------- 
-8-777777777----- 
-8-777777777----- 
-6-555555555----- 
		  

See also:

tabs The Hives - Introduce The Metric System In Time tabs Ebba Grön - 800 Grader tabs The Hives - Fall Is Just Something That Grownups Invented tabs Ebba Grön - Ung Och Sankt tabs The Hives - Untutored Youth (ver. 2) tabs The Hives - Theme From
e-chords

Other versions:

tabs The Vines - Get Free tabs The Hives - Get Free
auto scroll beats size up size down change color hide chords drawings
tab show chords e-chords YouTube Clip e-chords hide all tabs e-chords go to top tab

share