The Hellacopters

Carry me Home

The Hellacopters

tabs Expert expert

by  MOITASK8

save to print version add songbook text version e-mail correct tuner
chordsukulelecavacokeyboardtabbassdrumsharmonicaflute Guitar Pro
close

there isn't a video lesson for this song

chords

Carry me Home

	  		e:|---------------------------------| 
B:|---------------------------------| 
G:|--------4-4---8-8---4-4----------| 
D:|---4----4-4---8-8---4-4----------| 
A:|---4----2-2---6-6---2-2----------| 
E:|---2-----------------------------| 
 
e:|---------------------------------| 
B:|---------------------------------| 
G:|---------4-4---8-8---4-4---------| 
D:|--4-4----4-4---8-8---4-4---------| 
A:|--4-4----2-2---6-6---2-2---------| 
E:|--2-2----------------------------| 
 
e:|---------------------------------| 
B:|---------------------------------| 
G:|---------4-4---8-8---4-4---------| 
D:|--4-4----4-4---8-8---4-4---------| 
A:|--4-4----2-2---6-6---2-2---------| 
E:|--2-2----------------------------| 
 
e:|---------------------------------| 
B:|---------------------------------| 
G:|-------4-4-----------------------| 
D:|--6----4-4---4-------------------| 
A:|--6----2-2---4-------------------| 
E:|--4----------2-------------------| 

		  

See also:

tabs Yngwie Malmsteen - Casting Pearls Before The Swine tabs Yngwie Malmsteen - Evil Eye tabs Yngwie Malmsteen - Caught in the Middle tabs Yngwie Malmsteen - Too Young To Die, Too Drunk To Live tabs Yngwie Malmsteen - Carry on Wayward Son tabs The Hellacopters - Hopeless case of a kid in denial
e-chords

Other versions:

tabs AC/DC - Carry Me Home tabs The Hellacopters - Carry me Home tabs The Living End - Carry Me Home
auto scroll beats size up size down change color hide chords drawings
tab show chords e-chords YouTube Clip e-chords hide all tabs e-chords go to top tab

share