The Gladiators

Rude boy ska

The Gladiators

tabs Beginner beginner

save to print version add songbook text version e-mail correct tuner
chordsukulelecavacokeyboardtabbassdrumsharmonicaflute Guitar Pro
close

there isn't a video lesson for this song

chords

Rude boy ska

	  		Chorus :
| / / D#/ / / D#/ / / G#/ / / G#/ |
|---------------------------------|
|-------------1-------------------|
|---------1-3---------------------|
|-----------------4---4---4-------|



Verse :
| / / A#/ / / A#/ / / G#/ / / G#/ |
|---------------------------------|
|---------------------------------|
|---------1-1-1-1-----------------|
|-----------------4---4---4-------|
		  

Full key step upFull key step up
Half key step upHalf key step up
Half key step downHalf key step down
Full key step downFull key step down
hide glossary

See also:

tabs Ijahman - Signs and Wonders tabs The Gladiators - Pocket money tabs Abyssinians - Declaration of right tabs Max Romeo - War Inna Babylon tabs The Gladiators - Soul Rebel tabs The Heptones - Love won't come easy
e-chords

Other versions:

tabs The Gladiators - Rude boy ska
auto scroll beats size up size down change color hide chords drawings
tab show chords e-chords YouTube Clip e-chords hide all tabs e-chords go to top tab

share