The Get Up Kids

Maybe

The Get Up Kids

tabs

by  HEBEALMEIDA

save to print version add songbook text version e-mail correct tuner
chordsukulelecavacokeyboardtabbassdrumsharmonicaflute Guitar Pro
close

there isn't a video lesson for this song

chords

Maybe

	  		
Intro 

Guitar 1 
e|--------------------------| 
B|--------------------------| 
G|-11-11-11-11-11-11-11-11--| 
D|--x--x--x--x--x--x--x--x--| (x2) 
A|--9--9--9--9--9--9--9--9--| 
E|--------------------------| 

Guitar 1 
e|---------------------------|---------------------------|| 
B|---------------------------|---------------------------|| 
G|--11-11-11-11-11-11-11-11--|--11-11-11-11-11-11-11-11--|| 
D|---x--x--x--x--x--x--x--x--|---x--x--x--x--x--x--x--x--||  
A|---9--9--9--9--9--9--9--9--|---9--9--9--9--9--9--9--9--|| 
E|---------------------------|---------------------------|| 
Guitar 2                                                  | 
e|---------------------------|---------------------------|| 
B|--11br12-9----9-------7----|--11br12-9----9------------|| 
G|-----------11---11--6---6--|-----------11---11--4-4-3--|| 
D|---------------------------|---------------------------|| 
A|---------------------------|---------------------------|| 
E|---------------------------|---------------------------|| 

Guitar 1 
e|---------------------------|--------------------------|| 
B|---------------------------|--------------------------|| 
G|--11-11-11-11-11-11-11-11--|--9--9--9--9--9--9--9--9--|| 
D|---x--x--x--x--x--x--x--x--|--x--x--x--x--x--x--x--x--||  
A|---9--9--9--9--9--9--9--9--|--7--7--7--7--7--7--7--7--|| 
E|---------------------------|--------------------------|| 
Guitar 2                                                 | 
e|---------------------------|--------------------------|| 
B|--11br12-9----9-------7----|--------------------------|| 
G|-----------11---11--6---6--|--3h4h6--4-3----3h4/6/9~--|| 
D|---------------------------|-------------4------------|| 
A|---------------------------|--------------------------|| 
E|---------------------------|--------------------------|| 


verse 1 

Guitar 1 
e|--------------------------|--------------------------|| 
B|--------------------------|--------------------------|| 
G|-------------------8-8-8--|-------------------8-8-8--|| 
D|--4-4-4------------8-8-8--|--4-4-4------------8-8-8--|| 
A|--4-4-4------------6-6-6--|--4-4-4------------6-6-6--|| 
E|--2-2-2-------------------|--2-2-2-------------------|| 
Guitar 2                                                | 
e|--------------------------|--------------------------|| 
B|----------0---0-----------|----------0---0-----------|| 
G|--------3---3---3---------|--------3---3---3---------|| 
D|--------------------------|--------------------------|| 
A|--------------------------|--------------------------|| 
E|--------------------------|--------------------------|| 

Guitar 1 
e|-----------------------------------||-------------------|-------------------|| 
B|-----------------------------------||-------------------|-------------------|| 
G|-----------------------------------||--8-8-8-8-8-8-8-8--|-------------------|| 
D|--4-4-4-----------2-2-2-2-2-2-2-2--||--8-8-8-8-8-8-8-8--|--9-9-9-9-9-9-9-9--|| 
A|--4-4-4-----------2-2-2-2-2-2-2-2--||--6-6-6-6-6-6-6-6--|--9-9-9-9-9-9-9-9--|| 
E|--2-2-2-----------0-0-0-0-0-0-0-0--||-------------------|--7-7-7-7-7-7-7-7--|| 
Guitar 2                                                                       | 
e|-----------------------------------||---------6---------|-----4-------4-----|| 
B|----------0---0--------------------||-----7-------7-----|---------7---------|| 
G|--------3---3---3------------------||-------------------|-------------------|| 
D|-----------------------------------||-------------------|-------------------|| 
A|-----------------------------------||-------------------|-------------------|| 
E|-----------------------------------||-------------------|-------------------|| 

Guitar 1 
e|--------------------------|--------------------------|| 
B|--------------------------|--------------------------|| 
G|-------------------8-8-8--|-------------------8-8-8--|| 
D|--4-4-4------------8-8-8--|--4-4-4------------8-8-8--|| 
A|--4-4-4------------6-6-6--|--4-4-4------------6-6-6--|| 
E|--2-2-2-------------------|--2-2-2-------------------|| 
Guitar 2                                                | 
e|--------------------------|--------------------------|| 
B|----------0---0-----------|----------0---0-----------|| 
G|--------3---3---3---------|--------3---3---3---------|| 
D|--------------------------|--------------------------|| 
A|--------------------------|--------------------------|| 
E|--------------------------|--------------------------|| 

Guitar 1 
e|-----------------------------------||-------------------|-------------------|| 
B|-----------------------------------||-------------------|-------------------|| 
G|-----------------------------------||--8-8-8-8-8-8-8-8--|-------------------|| 
D|--4-4-4-----------2-2-2-2-2-2-2-2--||--8-8-8-8-8-8-8-8--|--9-9-9-9-9-9-9-9--|| 
A|--4-4-4-----------2-2-2-2-2-2-2-2--||--6-6-6-6-6-6-6-6--|--9-9-9-9-9-9-9-9--|| 
E|--2-2-2-----------0-0-0-0-0-0-0-0--||-------------------|--7-7-7-7-7-7-7-7--|| 
Guitar 2                                                                       | 
e|-----------------------------------||---------6---------|-----4-------4-----|| 
B|----------0---0--------------------||-----7-------7-----|---------7---------|| 
G|--------3---3---3------------------||-------------------|-------------------|| 
D|-----------------------------------||-------------------|-------------------|| 
A|-----------------------------------||-------------------|-------------------|| 
E|-----------------------------------||-------------------|-------------------|| 


Chorus 1 

Guitar 2                              
e|---------------------------|---------------------------| 
B|--11br12-9----9-------7----|--11br12-9----9------------| 
G|-----------11---11--6---6--|-----------11---11--4-4-3--| 
D|---------------------------|---------------------------| 
A|---------------------------|---------------------------| 
E|---------------------------|---------------------------| 

e|---------------------------|------------------------------| 
B|--11br12-9----9-------7----|------------------------------| 
G|-----------11---11--6---6--|--3h4h6--4-3----3h4h6--4-3----| 
D|---------------------------|-------------4-------------4--| 
A|---------------------------|------------------------------| 
E|---------------------------|------------------------------| 

e|------------------------------|---------------------| 
B|---------11-----9-9--------9--|--11-11-------11--9--| 
G|--11-11-----11------11-11-----|--------11-11--------| 
D|------------------------------|---------------------| 
A|------------------------------|---------------------| 
E|------------------------------|---------------------| 


Post-Chorus 

Guitar 2 
e|-----------2--|---------------------| 
B|-----0--------|-----11----11-12-11--| 
G|--3-----3-----|--11----11-----------| 
D|--------------|---------------------| 
A|--------------|---------------------| 
E|--------------|---------------------| 

e|-------------------------|-------------------------| 
B|-------------------------|-------------------------| 
G|-15-15-15-15-15-15-15-15-|-11-11-11-11-11-11-11-11-| 
D|-16-16-16-16-16-16-16-16-|-11-11-11-11-11-11-11-11-| (x2) 
A|-------------------------|-------------------------| 
E|-------------------------|-------------------------| 


verse 2 

Guitar 1 
e|--------------------------|--------------------------|| 
B|--------------------------|--------------------------|| 
G|-------------------8-8-8--|-------------------8-8-8--|| 
D|--4-4-4------------8-8-8--|--4-4-4------------8-8-8--|| 
A|--4-4-4------------6-6-6--|--4-4-4------------6-6-6--|| 
E|--2-2-2-------------------|--2-2-2-------------------|| 
Guitar 2                                                | 
e|--------------------------|--------------------------|| 
B|----------0---0-----------|----------0---0-----------|| 
G|--------3---3---3---------|--------3---3---3---------|| 
D|--------------------------|--------------------------|| 
A|--------------------------|--------------------------|| 
E|--------------------------|--------------------------|| 

Guitar 1 
e|-----------------------------------||-------------------|-------------------|| 
B|-----------------------------------||-------------------|-------------------|| 
G|-----------------------------------||--8-8-8-8-8-8-8-8--|-------------------|| 
D|--4-4-4-----------2-2-2-2-2-2-2-2--||--8-8-8-8-8-8-8-8--|--9-9-9-9-9-9-9-9--|| 
A|--4-4-4-----------2-2-2-2-2-2-2-2--||--6-6-6-6-6-6-6-6--|--9-9-9-9-9-9-9-9--|| 
E|--2-2-2-----------0-0-0-0-0-0-0-0--||-------------------|--7-7-7-7-7-7-7-7--|| 
Guitar 2                                                                       | 
e|-----------------------------------||---------6---------|-----4-------4-----|| 
B|----------0---0--------------------||-----7-------7-----|---------7---------|| 
G|--------3---3---3------------------||-------------------|-------------------|| 
D|-----------------------------------||-------------------|-------------------|| 
A|-----------------------------------||-------------------|-------------------|| 
E|-----------------------------------||-------------------|-------------------|| 


Pre-Chorus 2 

Guitar 1 
e|----------------------------|-------------------------------| 
B|----------------------------|-------------------------------| 
G|--------8-8--8--------------|--------8-8--8-----------------| 
D|--4-4---8-8--8--8-8-8--9-9--|--4-4---8-8--8--9-9-9-9-9-9-9--| (x2) 
A|--4-4---6-6--6--8-8-8--9-9--|--4-4---6-6--6--9-9-9-9-9-9-9--| 
E|--2-2-----------6-6-6--7-7--|--2-2-----------7-7-7-7-7-7-7--| 


Chorus 2 

Guitar 2                              
e|---------------------------|---------------------------| 
B|--11br12-9----9-------7----|--11br12-9----9------------| 
G|-----------11---11--6---6--|-----------11---11--4-4-3--| 
D|---------------------------|---------------------------| 
A|---------------------------|---------------------------| 
E|---------------------------|---------------------------| 

e|---------------------------|------------------------------| 
B|--11br12-9----9-------7----|------------------------------| 
G|-----------11---11--6---6--|--3h4h6--4-3----3h4h6--4-3----| 
D|---------------------------|-------------4-------------4--| 
A|---------------------------|------------------------------| 
E|---------------------------|------------------------------| 

e|------------------------------|---------------------| 
B|---------11-----9-9--------9--|--11-11-------11--9--| 
G|--11-11-----11------11-11-----|--------11-11--------| 
D|------------------------------|---------------------| 
A|------------------------------|---------------------| 
E|------------------------------|---------------------| 


Bridge 

Guitar 1 
e|-----------|-----------------------------|-----------------------------| 
B|-----------|-----------------------------|-----------------------------| 
G|-----------|-8-8-8-8-8-8-8-8-8-8-8-8-8-8-|-4-4-4-4-4-4-4-4-4-4-4-4-4-4-| 
D|---4-------|-x-x-x-x-x-x-x-x-x-x-x-x-x-x-|-x-x-x-x-x-x-x-x-x-x-x-x-x-x-| 
A|---4-------|-6-6-6-6-6-6-6-6-6-6-6-6-6-6-|-2-2-2-2-2-2-2-2-2-2-2-2-2-2-| 
E|---2---0---|-----------------------------|-----------------------------| 

e|-----------------------------|-----------------------------| 
B|-----------------------------|-----------------------------| 
G|-----------------------------|-----------------------------| 
D|-4-4-4-4-4-4-4-4-4-4-4-4-4-4-|-2-2-2-2-2-2-2-2-2-2-2-2-2-2-| 
A|-x-x-x-x-x-x-x-x-x-x-x-x-x-x-|-2-2-2-2-2-2-2-2-2-2-2-2-2-2-| 
E|-2-2-2-2-2-2-2-2-2-2-2-2-2-2-|-0-0-0-0-0-0-0-0-0-0-0-0-0-0-| 

e|-----------------------------|-----------------------------| 
B|-----------------------------|-----------------------------| 
G|-8-8-8-8-8-8-8-8-8-8-8-8-8-8-|-4-4-4-4-4-4-4-4-4-4-4-4-4-4-| 
D|-x-x-x-x-x-x-x-x-x-x-x-x-x-x-|-x-x-x-x-x-x-x-x-x-x-x-x-x-x-| 
A|-6-6-6-6-6-6-6-6-6-6-6-6-6-6-|-2-2-2-2-2-2-2-2-2-2-2-2-2-2-| 
E|-----------------------------|-----------------------------| 

e|-------------------------------------------|-----------------------------| 
B|-------------------------------------------|-----------------------------| 
G|-11-11-11-11-11-11-11-11-11-11-11-11-11-11-|-6-6-6-6-6-6-6-6-6-6-6-6-6-6-| 
D|--x--x--x--x--x--x--x--x--x--x--x--x--x--x-|-x-x-x-x-x-x-x-x-x-x-x-x-x-x-| 
A|--9--9--9--9--9--9--9--9--9--9--9--9--9--9-|-4-4-4-4-4-4-4-4-4-4-4-4-4-4-| 
E|-------------------------------------------|-----------------------------| 

e|-----------------------------|-----------------------------| 
B|-----------------------------|-----------------------------| 
G|-8-8-8-8-8-8-8-8-8-8-8-8-8-8-|-4-4-4-4-4-4-4-4-4-4-4-4-4-4-| 
D|-x-x-x-x-x-x-x-x-x-x-x-x-x-x-|-x-x-x-x-x-x-x-x-x-x-x-x-x-x-| 
A|-6-6-6-6-6-6-6-6-6-6-6-6-6-6-|-2-2-2-2-2-2-2-2-2-2-2-2-2-2-| 
E|-----------------------------|-----------------------------| 


Outro 

Guitar 2 
e|---------------------------|---------------------------| 
B|--11br12-9----9-------7----|--11br12-9----9------------| 
G|-----------11---11--6---6--|-----------11---11--4-4-3--| 
D|---------------------------|---------------------------| 
A|---------------------------|---------------------------| 
E|---------------------------|---------------------------| 

e|---------------------------|-------------------------| 
B|--11br12-9----9-------7----|-------------------------| 
G|-----------11---11--6---6--|--3h4h6--4-3----3h4/6/9~-| 
D|---------------------------|-------------4-----------| 
A|---------------------------|-------------------------| 
E|---------------------------|-------------------------| 

e|------------------------------|---------------------| 
B|---------11-----9-9--------9--|--11-11-------11--9--| 
G|--11-11-----11------11-11-----|--------11-11--------| 
D|------------------------------|---------------------| 
A|------------------------------|---------------------| 
E|------------------------------|---------------------| 


(I will tab Guitar 1's Chorus parts when I get the chance, but for now, enjoy.) 

************************************ 

| x   Dead note 
| h   Hammer-on 
| br  Bend release 
| /   Slide up 
| ~   Vibrato 

************************************ 
		  

See also:

tabs Bon Jovi - Wanted dead or Alive tabs Guns N' Roses - Estranged tabs Kiss - Forever tabs The Doors - Roadhouse Blues tabs Guns N' Roses - Bohemian Rhapsody tabs Van Halen - Pretty Woman
e-chords

Other versions:

tabs Lily Kershaw - Maybe tabs Jim Black - Maybe tabs Mateus Asato - Maybe tabs The Get Up Kids - Maybe tabs Secondhand Serenade - Maybe (intro) tabs Zombies - Maybe After He's Gone
auto scroll beats size up size down change color hide chords drawings
tab show chords e-chords YouTube Clip e-chords hide all tabs e-chords go to top tab

share