The Format

On Your Porch

The Format

tabs

by  SABRJOAO

save to print version add songbook text version e-mail correct tuner
chordsukulelecavacokeyboardtabbassdrumsharmonicaflute Guitar Pro
close

there isn't a video lesson for this song

chords

On Your Porch

	  		

e|-------8----------------------------8-------------|Repeat 3X everytime 
B|---8------8-------8----------8---------8----------| 
G|------------0-------------------------------------| 
D|-----7---------7----------------------------0-----| 
A|-8------------------------------7-----------------| 
E|---------------------------8----------------------| 
  I was on your porch, the smoke sank into my skin, so I came inside, to be with you 
  We talked all night, about everything we could imagine, cause come the morning I'll be 
   
  My dad was sick, my mom she cared for him, her love it nursed him back to 
  But me I ran, I couldn't even look at him, for fear I'd have to say  

  Even if it's alone. I was on your porch last night, the smoke sank into my skin. 


e|---------3-------------------------3--------------|Repeat 1X everytime 
B|----3-------3--------3------3----------3----------| 
G|---------------0----------------0----------0------| 
D|------------------0--------------------------0----| 
A|------2-----------------2-------------------------| 
E|-3------------------------------------------------| 
  To be with you 
   
  Gone 
   
  Life 
  
  Goodbye 

e|-----------1------------------------1---------------------1----------------|Repeat 2x 
B|-----3-------3--------3------3---------3--------3-----3-------3------------| 
G|----------------2--------------------------2--------------------0----------| 
D|-------0-----------0-------------0------------0----------0---------0-------| 
A|-0------------------------0------------------------2-----------------------| 
E|---------------------------------------------------------------------------| 
  And as, our eyes start to close, I turn to you, and I let you know, that I love you 

      
e|--1------1----|Repeat 
B|--3------3----------| 
G|--2------0----------| 
D|--0------0----------| 
A|--0------2----------| 
E|--0------0----------| 
  And as, I start to leave, he grabs me by the shoulder and he tells me, 


e|--0------0---0----0---0-----0------0--------------| 
B|--3------3---3----3---3-----2------3--------------| 
G|--0------0---0----0---0-----0------0--------------| 
D|--2------0---3----2---3-----2------2--------------| 
A|--3------2---2----0---2-----2------3--------------| 
E|--0------X---X----0---X-----0------0--------------| 
   what's left to lose you've done enough, and if you fail well then you fail 
   but not to us,cause these last few years, I know they've been hard,  
   but now it's time to get out of the desert and into the sun 






Aright guys lyrics basically where they belong in the tabs. 
Chord part is a bit confusing, but pretty easy to play. If anyone has  
questions or comments, welcome to leave them here or hit me up [email protected]  

   Thanks and hope you enjoy 
		  

See also:

tabs Hale - Blue Sky tabs No Doubt - don't speak solo tabs Red Hot Chili Peppers - Tell Me Baby tabs Red Hot Chili Peppers - Fortune Faded tabs Audioslave - I Am the Highway tabs Red Hot Chili Peppers - Road Trippin'
e-chords

Other versions:

tabs The Format - On Your Porch
auto scroll beats size up size down change color hide chords drawings
tab show chords e-chords YouTube Clip e-chords hide all tabs e-chords go to top tab

share