The Flatliners

Tail Feathers

The Flatliners

tabs

by  BOMBAXXX

save to print version add songbook text version e-mail correct tuner
chordsukulelecavacokeyboardtabbassdrumsharmonicaflute Guitar Pro
close

there isn't a video lesson for this song

chords

Tail Feathers

	  		

Hey guys, hope you enjoy the tabs, I learned this song by ear and I have no idea how the band 
 plays it. If there is anything that sounds way off let me know, but this tab should be pretty  
close to accurate, not 100% accurate but it's pretty close! 
Tuning: EADGBe 

(Intro) 
e|---------------------------------------------------------------------------| 
B|-10---10--8-----8---8---8-------------8---8---8---10--10-8-----------------| 
G|------------9-----9---9---9---9----9----9---9---9----------9--9--9---------| 
D|----------------------------10--10-----------------------------10-10-------| 
A|---------------------------------------------------------------------------| 
E|---------------------------------------------------------------------------| 

e|---------------------------------------------------------------------------| 
B|--10--10-8----------------------10--10-8-----------------------------------| 
G|-----------9--9----9---------------------9---------------------------------| 
D|----------------10---10----------------------------------------------------| 
A|---------------------------------------------------------------------------| 
E|---------------------------------------------------------------------------| 

e|---------------------------------------------------------------------------| 
B|---------------------------------------------------------------10--10-8----| 
G|--------------------------10--10-10-------------------------------------9--| 
D|---7--7-7-7-7-7-7-7-7-7-7-10--10-10-10-10-10-10-10-10-10-10-10-------------| 
A|---7--7-7-7-7-7-7-7-7-7-7-8---8--8--10-10-10-10-10-10-10-10-10-------------| 
E|---5--5-5-5-5-5-5-5-5-5-5-----------8--8--8--8--8--8--8--8--8--------------| 
p.m.    * *   * * *   * * *              *  *     *  *     *  *               (x2) 

  Suburban slums to numb the pain... 
e|---------------------------------------------------------------------------| 
B|---------------------------------------------------------------10--10-8----|(On the forth time) 
G|--------------------------10--10-10-------------------------------------9--|(don't play the...) 
D|---7--7-7-7-7-7-7-7-7-7-7-10--10-10-10-10-10-10-10-10-10-10-10-------------|(...-10--10-8---) 
A|---7--7-7-7-7-7-7-7-7-7-7-8---8--8--10-10-10-10-10-10-10-10-10-------------|(... ---------9-) 
E|---5--5-5-5-5-5-5-5-5-5-5-----------8--8--8--8--8--8--8--8--8--------------| 
p.m.    * *   * * *   * * *              *  *     *  *     *  *               (x4) 

Run away...Run away... 
e|---------------------------------------------------------------------------| 
B|---------------------------------------------------------------------------| 
G|---------------------------------------------------------------------------| 
D|--10-10-10-10-10-10-10-10-10-10-10-10-10-10-10-7-7-7-7-7-7-7-7-7-7-7-------| 
A|--8--8--8--8--8--8--8--8--8--8--8--8--8--8--8--5-5-5-5-5-5-5-5-5-5-5-------| 
E|---------------------------------------------------------------------------| 
p.m.* * * * * * * * * * * * * * * * * * * * * * * * * * * * * * * * *  


e|----------------8-----8-----------------8----8--------------------8--------| 
B|--10--10-8--8-------8----8-----8--8--8-----8----8-----8---8---8------------| 
G|-----------9--9---9----9---9-9--9--9--9--9----9---9-9---9---9---9----------| 
D|---------------------------------------------------------------------------| 
A|---------------------------------------------------------------------------| 
E|---------------------------------------------------------------------------| 

e|-------8--10-8--------------------8-----8----------------------------------| 
B|-----8---------8-10-8---------8-------8-----8-----8---8--------------------| 
G|---9------------------9h10h9----9---9-----9---9-9---9---9------------------| 
D|---------------------------------------------------------------------------| 
A|---------------------------------------------------------------------------| 
E|---------------------------------------------------------------------------| 

Making eyes for all to see... 
e|---------------------------------------------------------------------------| 
B|---------------------------------------------------------------10--10-8----| 
G|--------------------------10--10-10-------------------------------------9--| 
D|---7--7-7-7-7-7-7-7-7-7-7-10--10-10-10-10-10-10-10-10-10-10-10-------------| 
A|---7--7-7-7-7-7-7-7-7-7-7-8---8--8--10-10-10-10-10-10-10-10-10-------------| 
E|---5--5-5-5-5-5-5-5-5-5-5-----------8--8--8--8--8--8--8--8--8--------------| 
p.m.    * *   * * *   * * *              *  *     *  *     *  *                

Your disguise is growing weak. 
e|---------------------------------------------------------------------------| 
B|-----------------------------------------10--10-8--------------------------| 
G|-7--7-5--5-------7--7-7-7-7-----------------------9------------------------| 
D|-7--7-5--5-5--5--7--7-7-7-7-7-10--10-10------------------------------------| 
A|-5--5-3--3-5--5--5--5-5-5-5-7-10--10-10------------------------------------| 
E|-----------3--3-------------5-8---8--8-------------------------------------| 
p.m.                 * * * * 

We're not perfect... 
e|---------------------------------------------------------------------------| 
B|---------------------------------------------------------------------------| 
G|--------------------------10--10-10----------------------------------------| 
D|---7--7-7-7-7-7-7-7-7-7-7-10--10-10-10-10-10-10-10-10-10-10-10-------------| 
A|---7--7-7-7-7-7-7-7-7-7-7-8---8--8--10-10-10-10-10-10-10-10-10-------------| 
E|---5--5-5-5-5-5-5-5-5-5-5-----------8--8--8--8--8--8--8--8--8--------------| 
p.m.    * *   * * *   * * *              *  *     *  *     *  *                

I want to have something again that I can feel... 
e|---------------------------------------------------------------------------| 
B|---------------------------------------------------------------------------| 
G|-10-10-10-10-10-10-10-10-10------------------------------------------------| 
D|-10-10-10-10-10-10-10-10-10-10-10-10-10-10-10-10-10-10-7--7-7-7-7-7-7-7----| 
A|-8--8--8--8--8--8--8--8--8--10-10-10-10-10-10-10-10-10-7--7-7-7-7-7-7-7----| 
E|----------------------------8--8--8--8--8--8--8--8--8--5--5-5-5-5-5-5-5----| 
p.m.* *     * *      * *      *  *     *  *     *  *  *     * * * * * * * 

  .........................................................................That I can feel... 
e|---------------------------------------------------------------------------| 
B|---------------------------------------------------------------------------| 
G|-------------------------10-10-10-10-10-10-7-7-7-7-7-7-10-10-10-10-10-10---| 
D|---10--10-10-10-10-10-10-10-10-10-10-10-10-7-7-7-7-7-7-10-10-10-10-10-10---| 
A|---10--10-10-10-10-10-10-8--8--8--8--8--8--5-5-5-5-5-5-8--8--8--8--8--8----| 
E|---8---8--8--8--8--8--8----------------------------------------------------|(x2) 

Come warm your cold bones.... 
e|---------------------------------------------------------------------------| 
B|---------------------------------------------------------------------------|(Palm mute the last 
G|-------------------------5-5-5-5-5-5-7-7-7-7-7-7-------------7-7-7-7-7-7---|notes on the second 
D|-7-7-7-7-7-7-3-3-3-3-3-3-5-5-5-5-5-5-7-7-7-7-7-7-5-5-5-5-5-5-7-7-7-7-7-7---|time) 
A|-7-7-7-7-7-7-3-3-3-3-3-3-3-3-3-3-3-3-5-5-5-5-5-5-5-5-5-5-5-5-5-5-5-5-5-5---| 
E|-5-5-5-5-5-5-1-1-1-1-1-1-------------------------3-3-3-3-3-3---------------|(x2) 
                                                              (* * * * * * )P.m. on second time  

e|---------------8-----8-----------------8----8--------------------8---8-10-8| 
B|-10--10-8--8-------8----8-----8--8--8-----8----8-----8---8---8-----8-------| 
G|----------9--9---9----9---9-9--9--9--9--9----9---9-9---9---9---9--9--------| 
D|---------------------------------------------------------------------------| 
A|---------------------------------------------------------------------------| 
E|---------------------------------------------------------------------------| 

Come quietly, cross your fingers...                 ...Fall to your knees... 
e|---------------------------------------------------------------------------| 
B|---------------------------------------------------------------------------| 
G|------------------------------------------------------10-10--10-10--10-10--| 
D|--10--10-10--10-10--10-10--10-10--10-10--10-10--10-10-10-10--10-10--10-10--| 
A|--10--10-10--10-10--10-10--10-10--10-10--10-10--10-10-8--8---8--8---8--8---| 
E|--8---8--8---8--8---8--8---8--8---8--8---8--8---8--8-----------------------| 

Yeah swing at me...      ...Pull out your teeth... 
e|---------------------------------------------------------------------------| 
B|---------------------------------------------------------------------------| 
G|---------------------------10-10-10-10-10-10-10-10-10-10-10-10-------------| 
D|--10--10-10--10-10--10-10--10-10-10-10-10-10-10-10-10-10-10-10-------------| 
A|--10--10-10--10-10--10-10--8--8--8--8--8--8--8--8--8--8--8--8--------------| 
E|--8---8--8---8--8---8--8---------------------------------------------------| 
 p.m.                        *  *  *  *  *  *  *  *  *  *  *  *               
  
    Take everything... 
e|---------------------------------------------------------------------------| 
B|---------------------------------------------------------------------------| 
G|----7-7-7-7-7-7-7-7-7-7-10-10-10-10-10-10-10-10-10-10----------------------| 
D|----7-7-7-7-7-7-7-7-7-7-10-10-10-10-10-10-10-10-10-10----------------------| 
A|----5-5-5-5-5-5-5-5-5-5-8--8--8--8--8--8--8--8--8--8-----------------------| 
E|---------------------------------------------------------------------------| (x2) 
p.m.  * * * * * * * * * * *  *  *  *  *  *  *  *  *  * 

Come Warm Your Cold Bones... 
e|---------------------------------------------------------------------------| 
B|---------------------------------------------------------------------------|  
G|------------------5-5-5-5-5-5-7-7-7-7-7-7-------------7-7-7-7-7-7----------| 
D|-7----3-----------5-5-5-5-5-5-7-7-7-7-7-7-5-5-5-5-5-5-7-7-7-7-7-7----------| 
A|-7----3-----------3-3-3-3-3-3-5-5-5-5-5-5-5-5-5-5-5-5-5-5-5-5-5-5----------| 
E|-5----1-----------------------------------3-3-3-3-3-3----------------------| 

Hold your damage done close... 
e|---------------------------------------------------------------------------| 
B|---------------------------------------------------------------------------| 
G|-------------------------5-5-5-5-5-5-7-7-7-7-7-7-------------7-7-7-7-7-7---| 
D|-7-7-7-7-7-7-3-3-3-3-3-3-5-5-5-5-5-5-7-7-7-7-7-7-5-5-5-5-5-5-7-7-7-7-7-7---| 
A|-7-7-7-7-7-7-3-3-3-3-3-3-3-3-3-3-3-3-5-5-5-5-5-5-5-5-5-5-5-5-5-5-5-5-5-5---| 
E|-5-5-5-5-5-5-1-1-1-1-1-1-------------------------3-3-3-3-3-3---------------|(x3) 
                                                 (* * * * * * * * * * * *)P.m. only on third time 
		  

auto scroll beats size up size down change color hide chords drawings
tab show chords e-chords YouTube Clip e-chords hide all tabs e-chords go to top tab

share