The Fall

Mr Pharmacist

The Fall

tabs

by  CARLLUZ

save to print version add songbook text version e-mail correct tuner
chordsukulelecavacokeyboardtabbassdrumsharmonicaflute Guitar Pro
close

there isn't a video lesson for this song

chords

Mr Pharmacist

	  		Riff No.1  
"Mister pharmacist..." 
e|---------------------------------------------------------------------------| 
B|-4-4-2-2-4-4-2-2-----------------------------------------------------------| 
G|-5-5-3-3-5-5-3-3-----------------------------------------------------------| 
D|-6-6-4-4-6-6-4-4-----------------------------------------------------------| 
A|-6-6-4-4-6-6-4-4-----------------------------------------------------------| 
E|-4-4-2-2-4-4-2-2-----------------------------------------------------------| 

Riff #2 
"oh, mister pharmacist" 
e|---------------------------------------------------------------------------| 
B|---------------------------------------------------------------------------| 
G|-6-6-4-4-6-6-4-4-----------------------------------------------------------| 
D|-6-6-4-4-6-6-4-4-----------------------------------------------------------| 
A|-4-4-2-2-4-4-2-2-----------------------------------------------------------| 
E|---------------------------------------------------------------------------| 

Riff #3 
"Dear mister pharmacist..." 
e|---------------------------------------------------------------------------| 
B|---------------------------------------------------------------------------| 
G|-8-8-8-8-8-8-8-8-7-6-6-6-6-6-6-6-------------------------------------------| 
D|-8-8-8-8-8-8-8-8-7-6-6-6-6-6-6-6-------------------------------------------| 
A|-6-6-6-6-6-6-6-6-5-4-4-4-4-4-4-4-------------------------------------------| 
E|---------------------------------------------------------------------------| 

Interlude part after the verses  
e|---------------------------------------------------------------------------| 
B|---------------------------------------------------------------------------| 
G|---------------------------------------------------------------------------| 
D|-------1-4-----------------------------------------------------------------| 
A|---2-4-----4-2-------------------------------------------------------------| 
E|-4-------------4-2---------------------------------------------------------| 

************************************ 

| /   slide up 
| \   slide down 
| h   hammer-on 
| p   pull-off 
| ~   vibrato 
| +   harmonic 
| x   Mute note 
| b   Bend 
| pb  Pre-bend 
| br  Bend release 
| pbr Pre-bend release 
| brb Bend release bend 

************************************ 
		  

See also:

tabs Deep Purple - Perfect Strangers tabs Deep Purple - Smoke on the water (intro) tabs Ira! - Nucleo De Base tabs Deep Purple - Smoke on the Water (solo) tabs Ira! - Flerte Fatal (intro e solo) tabs Deep Purple - Smoke On The Water
e-chords

Other versions:

tabs The Fall - Mr Pharmacist
auto scroll beats size up size down change color hide chords drawings
tab show chords e-chords YouTube Clip e-chords hide all tabs e-chords go to top tab

share