The Dubliners

Raglan Road

The Dubliners

tabs

by  RENEJUNIOR

save to print version add songbook text version e-mail correct tuner
chordsukulelecavacokeyboardtabbassdrumsharmonicaflute Guitar Pro
close

there isn't a video lesson for this song

chords

Raglan Road

	  		
E|----------------|-----------------|-------------------|----------------| 
B|----------------|-----------------|-------------------|----------------| 
G|----------------|------------3--4-|-4s7---------------|----------------| 
D|-0h2-2s4--4-2s4-|-2h4-4s7-2s4-----|-----4--0--2s4s5s4-|-0--0h2-----0---| 
A|----------------|-----------------|-------------------|-------0h4------| 
D|-----0------0---|-----0---------5-|--------0----------|-5-----------0--| 

E|----------------|-----------------|-------------------|----------------| 
B|----------------|-----------------|-------------------|----------------| 
G|----------------|------------3--4-|-4s7---------------|----------------| 
D|-0h2-2s4--4-2s4-|-2h4-4s7-2s4-----|-----4--0--2s4s5s4-|-0--0h2-----0---| 
A|----------------|-----------------|-------------------|-------0h4------| 
D|-----0------0---|-----0---------5-|--------0----------|-5-----------0--| 

E|----------------|-----------------|-------------------|----------------| 
B|------0------0--|-----------------|----------3--------|----------------| 
G|-2s4--4--2s4-4--|-4s7-------------|-----2-------------|----------------| 
D|------5------5--|-----4s5s4--2h4-0|-4h5----4----4--2--|-0h2-2s4-4-2s4--| 
A|----------------|------------0----|----------------0--|----------------| 
D|------5------5--|-----0----------0|-----0----0--------|-----0-----0----| 

E|-----------------|-------------------|----------------| 
B|-----------------|-------------------|----------------| 
G|------------3--4-|-4s7---------------|----------------| 
D|-2h4-4s7-2s4-----|-----4--0--2s4s5s4-|-0--0h2-----0---| 
A|-----------------|-------------------|-------0h4------| 
D|------0--------5-|--------0----------|-5-----------0--| 

E|----------------|-----------------|-------------------|----------------| 
B|----------------|-----------------|-------------------|----------------| 
G|----------------|------------3--4-|-4s7---------------|----------------| 
D|-0h2-2s4--4-2s4-|-2h4-4s7-2s4-----|-----4--0--2s4s5s4-|-0--0h2-----0---| 
A|----------------|-----------------|-------------------|-------0h4------| 
D|-----0------0---|-----0---------5-|--------0----------|-5-----------0--| 

E|----------------|-----------------|-------------------|----------------| 
B|----------------|-----------------|-------------------|----------------| 
G|----------------|------------3--4-|-4s7---------------|----------------| 
D|-0h2-2s4--4-2s4-|-2h4-4s7-2s4-----|-----4--0--2s4s5s4-|-0--0h2-----0---| 
A|----------------|-----------------|-------------------|-------0h4------| 
D|-----0------0---|-----0---------5-|--------0----------|-5-----------0--| 

E|----------------|-----------------|-------------------|----------------| 
B|------0------0--|-----------------|----------3--------|----------------| 
G|-2s4--4--2s4-4--|-4s7-------------|-----2-------------|----------------| 
D|------5------5--|-----4s5s4--2h4-0|-4h5----4----4--2--|-0h2-2s4-4-2s4--| 
A|----------------|------------0----|----------------0--|----------------| 
D|------5------5--|-----0----------0|-----0----0--------|-----0-----0----| 

E|-----------------|-------------------|----------------| 
B|-----------------|-------------------|----------------| 
G|------------3--4-|-4s7---------------|----------------| 
D|-2h4-4s7-2s4-----|-----4--0--2s4s5s4-|-0--0h2-----0---| 
A|-----------------|-------------------|-------0h4------| 
D|------0--------5-|--------0----------|-5-----------0--| 


************************************ 

| h  Hammer-on 

************************************ 
		  

auto scroll beats size up size down change color hide chords drawings
tab show chords e-chords YouTube Clip e-chords hide all tabs e-chords go to top tab

share