The Dead Revolt

Amplexus

The Dead Revolt

tabs

by  ALEFFEDERICO

save to print version add songbook text version e-mail correct tuner
chordsukulelecavacokeyboardtabbassdrumsharmonicaflute Guitar Pro
close

there isn't a video lesson for this song

chords

Amplexus

	  		Drop D Tuning 

(0:00) 


E|------------------------------4-------2----------| 
B|------------------5-----------5-------3----------| 
G|------------------------------6-------4----------| 
D|------------0-5-7---7---------7-------5----------| 
A|-12-9-12----------------------4-------2----------| 
D|-9--7-9-----------------------4-------2----------| 



E|------------------------------4-------2-0--------| 
B|-----------------10------10---5----------3-------| 
G|------------9-11----9-11------6-----------4------| 
D|------------------------------7------------5-----| 
A|-12-9-12----------------------4------------------| 
D|-9--7-9-----------------------4------------------| 



E|------------------------------4-------2----------| 
B|------------------5-----------5-------3----------| 
G|------------------------------6-------4----------| 
D|------------0-5-7---7---------7-------5----------| 
A|-12-9-12----------------------4-------2----------| 
D|-9--7-9-----------------------4-------2----------| 



E|------------------------------4-------2-------5--| 
B|-----------------10------10---5-------3----------| 
G|------------9-11----9-11------6-------4-------4--| 
D|------------------------------7-------5-------5--| 
A|-12-9-12----------------------4-------2----------| 
D|-9--7-9-----------------------4-------2----------| 



___________________________________________________________ 

(0:24) 



E|-7--9-----7--9-----7--9-----7--9-----4-----------| 
B|-8--10----8--10----8--10----8--10----5-----------| 
G|-9--11----9--11----9--11----9--11----6-----------|            2x 
D|-10-12----10-12----10-12----10-12----7-----------| 
A|-7--9-----7--9-----7--9-----7--9-----4-----------| 
D|-7--9-----7--9-----7--9-----7--9-----4-----------| 



__________________________________________________________ 

(1:06) 



E|-7--9---10-9-------------------------------------| 
B|-8--10--------10-9-10-9----9-10-9----------------| 
G|-9--11------------------11--------11-9-----------| 
D|-10-12---------------------------------11--------| 
A|-7--9--------------------------------------------| 
D|-7--9--------------------------------------------| 



E|-7--9--10-12-10-0--------------------------------| 
B|-8--10------------10-12-10-0--10-12-10-----------| 
G|-9--11------------------------9--11-9------------| 
D|-10-12-------------------------------------------| 
A|-7--9--------------------------------------------| 
D|-7--9--------------------------------------------| 



E|-7--9---10-9-------------------------------------| 
B|-8--10--------10-9-10-9----9-10-9----------------| 
G|-9--11------------------11--------11-9-----------| 
D|-10-12---------------------------------11--------| 
A|-7--9--------------------------------------------| 
D|-7--9--------------------------------------------| 



E|-7--9---4-0--------7-----------------------------| 
B|-8--10------5-----------(7)----------------------| 
G|-9--11--------6----6----(7)----------------------| 
D|-10-12-------------7-----------------------------| 
A|-7--9--------------------------------------------| 
D|-7--9--------------------------------------------| 


____ 

(1:18) 



E|-7--9---10-9-------------------------------------| 
B|-8--10--------10-9-10-9----9-10-9----------------| 
G|-9--11------------------11--------11-9-----------| 
D|-10-12---------------------------------11--------| 
A|-7--9--------------------------------------------| 
D|-7--9--------------------------------------------| 



E|-7--9--10-12-10-0--------------------------------| 
B|-8--10------------10-12-10-0--10-12-10-----------| 
G|-9--11------------------------9--11-9------------| 
D|-10-12-------------------------------------------| 
A|-7--9--------------------------------------------| 
D|-7--9--------------------------------------------| 



E|-7--9---10-9-------------------------------------| 
B|-8--10--------10-9-10-9----9-10-9----------------| 
G|-9--11------------------11--------11-9-----------| 
D|-10-12---------------------------------11--------| 
A|-7--9--------------------------------------------| 
D|-7--9--------------------------------------------| 



E|-7--9-------4------------------------------------| 
B|-8--10------5------------------------------------| 
G|-9--11------6------------------------------------| 
D|-10-12------7------------------------------------| 
A|-7--9-------4------------------------------------| 
D|-7--9-------4------------------------------------| 


__________________________________________________________ 

(1:38) 


Chorus 

E|-----------4---------2----4---------9------------| 
B|-----------5---------3----5---------10-----------| 
G|-7----9----6----7----4----6----9----11-----------|            2x 
D|-5----7----7----5----5----7----8----12-----------| 
A|-5----7----4----5----2----4----7----9------------| 
D|-5----7----4----5----2----4----8----9------------| 



__________________________________________________________ 


(2:08) 


E|-------------------------------------------------| 
B|-------------------------------------------------| 
G|---4-----7-----4-----7-----4-----7-----4-----7---| 
D|-7---7-4---4-7---7-4---4-7---7-4---4-7---7-4---4-| 
A|-------------------------------------------------| 
D|-------------------------------------------------| 



E|-------------------------------------------------| 
B|-------------------------------------------------| 
G|---4-----6-----4-----6-----4-----7-----4-----7---| 
D|-7---7-4---4-7---7-4---4-7---7-4---4-7---7-4---4-| 
A|-------------------------------------------------| 
D|-------------------------------------------------| 



E|-------------------------------------------------| 
B|-------------------------------------------------| 
G|---9----11----9----11----7-----9-----7-----9-----| 
D|-12-12-9--9-12-12-9--9-9---9-7---7-9---9-7---7---| 
A|-------------------------------------------------| 
D|-------------------------------------------------| 



E|-------------------------------------------------| 
B|-------------------------------------------------| 
G|---9----11----9----11----9----11----9----11------| 
D|-11-11-9--9-11-11-9--9-12-12-9--9-12-12-9--9-----| 
A|-------------------------------------------------| 
D|-------------------------------------------------| 



E|---------------5-0--------------7-6-5-0--------0-| 
B|---5-0-7-0---------7-6-5-0-5-6-7-------7-6-5-0-2-| 
G|-0---------6-7-----------------------------------| 
D|-------------------------------------------------| 
A|-------------------------------------------------| 
D|-------------------------------------------------| 



E|-------------0-2-------5-----7-----9-----10------| 
B|-0-3---0-2-3-----3-------------------------------| 
G|-----4-------------0-2---0-4---0-6---0-7---------| 
D|-------------------------------------------------| 
A|-------------------------------------------------| 
D|-------------------------------------------------| 



E|-0-5---0-7---0-9---0-10----0-12----0-12-------14-| 
B|-----5-----7-----9------12------14------15-14----| 
G|-------------------------------------------------| 
D|-------------------------------------------------| 
A|-------------------------------------------------| 
D|-------------------------------------------------| 



E|---------------------------7-8-10-8-7--7---------| 
B|---------------------7-8-10----------10-10-8-7---| 
G|----------4-5-7-6-7-9------------------------7---| 
D|-----4-5-7---------------------------------------| 
A|4-5-7--------------------------------------------| 
D|-------------------------------------------------| 



________________________________________________________ 

(4:50) 


E|-2------2------5------0--------------------------| 
B|-3------3------3------0--------------------------| 
G|-2------4------4------0--------------------------| 
D|-0------4-------------2--------------------------| 
A|-0------2-------------2--------------------------| 
D|-0-------------5------2--------------------------| 



E|-------------------------------------------------| 
B|-------------------------------------------------| 
G|-------------------------------------------------| 
D|-------------------------------------------------| 
A|-------------------------------------------------| 
D|-------------------------------------------------| 
		  

Full key step upFull key step up
Half key step upHalf key step up
Half key step downHalf key step down
Full key step downFull key step down
auto scroll beats size up size down change color hide chords drawings
tab show chords e-chords YouTube Clip e-chords hide all tabs e-chords go to top tab

share