The Cyrkle

Turn Down Day

The Cyrkle

tabs

by  JOV-CORREA

save to print version add songbook text version e-mail correct tuner
chordsukulelecavacokeyboardtabbassdrumsharmonicaflute Guitar Pro
close

there isn't a video lesson for this song

chords

Turn Down Day

	  		

0:15 

G|----9-------7-------10--9---7-------| 
D|7---------------7---------------7---| 
A|------------------------------------| 
E|------------------------------------| 

G|----------------------------------------------------------------| 
D|5-----------5---5---5-------0---3-----------3---3---3-------3---| 
A|----------------------------------------------------------------| 
E|----------------------------------------------------------------| 

G|------------------------------------------------2---------------| 
D|2-----------2---------------2---0-----------3-----------3---0---| 
A|----------------0-------3---------------------------------------| 
E|----------------------------------------------------------------| 

G|----------------------------------------------------------------| 
D|5-----------5---5---5-------0---3-----------3---3---3-------3---| 
A|----------------------------------------------------------------| 
E|----------------------------------------------------------------| 

G|----------------------------------------------------------------| 
D|2---------------0-----------------------------------------------| 
A|----------------------------------------------------------------| 
E|----------------------------------------------------------------| 

0:28 

G|----------------------------------------------------------------| 
D|5-----------5-----------5-------3-----------3-----------3-------| 
A|----------------3---3-------3-------------------3---3-----------| 
E|----------------------------------------------------------------| 

G|----------------------------------------2---------------2-------| 
D|2-----------2---------------2---0---3-------3---0---3-------3---| 
A|----------------0---0---3---------------------------------------| 
E|----------------------------------------------------------------| 

G|----------------------------------------------------------------| 
D|5-----------5-----------5-------3-----------3-----------3-------| 
A|----------------3---3-------3-------------------3---3-------3---| 
E|----------------------------------------------------------------| 

G|----------------------------------------------------------------| 
D|----------------------------------------------------------------| 
A|1-------1-------------------------------------------------------| 
E|----------------------------------------------------------------| 

0:40 

G|----------------------------------------------------------------| 
D|5-----------5---5---5-------0---3-----------3---3---3-------3---| 
A|----------------------------------------------------------------| 
E|----------------------------------------------------------------| 

G|------------------------------------------------2---------------| 
D|2-----------2-------------------0-----------3-----------3---0---| 
A|----------------0---0-------0-----------------------------------| 
E|----------------------------------------------------------------| 

G|----------------------------------------------------------------| 
D|5-----------5---5---5-------0---3-----------3---3---3-------3---| 
A|----------------------------------------------------------------| 
E|----------------------------------------------------------------| 

G|----------------------------------------------------------------| 
D|----------------0-------------h-1-----h-2-----h-3-----h-4-----h-| 
A|0---------------------------------------------------------------| 
E|----------------------------------------------------------------| 

0:51 

G|----------------------------------------------------------------| 
D|5-----------5-----------5---4---3-----------3-----------3-------| 
A|----------------3---3---------------------------3---3-------3---| 
E|----------------------------------------------------------------| 

G|----------------------------------------2---------------2-------| 
D|2-----------2---------------2---0---3-------3---0---3-------3---| 
A|----------------0---0---3---------------------------------------| 
E|----------------------------------------------------------------| 

G|----------------------------------------------------------------| 
D|5-----------5-----------5-------3-----------------------3-------| 
A|----------------3---3-------3-------------------3---3-------3---| 
E|----------------------------------------------------------------| 

G|----------------------------------------------------------------| 
D|----------------------------------------------------------------| 
A|1-------1-------------------------------------------------------| 
E|----------------------------------------------------------------| 

1:03 

G|----------------------------------------------------------------| 
D|5-------------------------------3-----------3-------------------| 
A|----------------3-------3-----------------------1-------1-------| 
E|----------------------------------------------------------------| 

G|----------------2-------2-----------------------2---------------| 
D|2-----------2-------------------0-----------3-----------3---0---| 
A|----------------------------------------------------------------| 
E|----------------------------------------------------------------| 

G|----------------------------------------------------------------| 
D|5-----------5-------------------3-----------3-------------------| 
A|----------------3-------3-----------------------1-------1-------| 
E|----------------------------------------------------------------| 

G|----------------------------------------------------------------| 
D|----------------------------------------------------------------| 
A|1-------1---------------1-------1---------------1-------1-------| 
E|----------------------------------------------------------------| 

1:15 

G|----------------------------------------------------------------| 
D|5-----------x---5---5-------0---3-----------3---3---3-------3---| 
A|----------------------------------------------------------------| 
E|----------------------------------------------------------------| 

G|------------------------------------------------2-------2-------| 
D|2-----------2---------------2---0-----------3-------3-------3---| 
A|----------------0-------3---------------------------------------| 
E|----------------------------------------------------------------| 

G|----------------------------------------------------------------| 
D|5-----------5---5---5-------5---3-----------3---3---3-------3---| 
A|----------------------------------------------------------------| 
E|----------------------------------------------------------------| 

G|--------------------------------9-------7-------10--9---7-------| 
D|2---------------0-----------7---------------7---------------7---| 
A|----------------------------------------------------------------| 
E|----------------------------------------------------------------| 

1:26 

G|----------------------------------------------------------------| 
D|5-----------5---5---5-------0---3-----------3---3---3-------3---| 
A|----------------------------------------------------------------| 
E|----------------------------------------------------------------| 

G|------------------------------------------------2---------------| 
D|2-----------2---------------2---0-----------3-------3-------0---| 
A|----------------0-------3---------------------------------------| 
E|----------------------------------------------------------------| 

G|----------------------------------------------------------------| 
D|5-----------5---5---5-------0---3-----------3---3---3-------3---| 
A|----------------------------------------------------------------| 
E|----------------------------------------------------------------| 

G|----------------------------------------------------------------| 
D|2---------------0-----------------------------------------------| 
A|----------------------------------------------------------------| 
E|----------------------------------------------------------------| 

1:38 

G|----------------------------------------------------------------| 
D|5-----------5-----------5---4---3-----------3-----------3-------| 
A|----------------3---3---------------------------3---3-------3---| 
E|----------------------------------------------------------------| 

G|----------------------------------------2---------------2-------| 
D|2-----------2---------------2---0---3-------3---0---3-------3---| 
A|----------------0---0---3---------------------------------------| 
E|----------------------------------------------------------------| 

G|----------------------------------------------------------------| 
D|5-----------5-----------5---4---3-----------3-----------3-------| 
A|----------------3---3---------------------------3---3-------3---| 
E|----------------------------------------------------------------| 

G|----------------------------------------------------------------| 
D|----------------------------------------------------------------| 
A|1-------1-------------------------------------------------------| 
E|----------------------------------------------------------------| 

1:50 

G|----------------------------------------------------------------| 
D|5-----------5---5---5-------0---3-----------3---3---3-------3---| 
A|----------------------------------------------------------------| 
E|----------------------------------------------------------------| 

G|----------------------------------------------------------------| 
D|2-----------2-------------------0-----------0---0---0-------0---| 
A|----------------0---0-------0-----------------------------------| 
E|----------------------------------------------------------------| 

G|----------------------------------------------------------------| 
D|5-----------5---5---5-------0---3-----------3---3---3-------3---| 
A|----------------------------------------------------------------| 
E|----------------------------------------------------------------| 

G|----------------------------------------------------------------| 
D|----------------0-------------h-1-----h-2-----h-3-----h-4-----h-| 
A|0---------------------------------------------------------------| 
E|----------------------------------------------------------------| 

2:01 

G|----------------------------------------------------------------| 
D|5-----------5-----------5---4---3-----------3-----------3-------| 
A|----------------3---3---------------------------3---3-------3---| 
E|----------------------------------------------------------------| 

G|----------------------------------------2---------------2-------| 
D|2-----------2---------------2---0---3-------3---0---3-------3---| 
A|----------------0---0---3---------------------------------------| 
E|----------------------------------------------------------------| 

G|----------------------------------------------------------------| 
D|5-----------5-----------5---4---3-----------3-----------3-------| 
A|----------------3---3---------------------------3---3-------3---| 
E|----------------------------------------------------------------| 

G|----------------------------------------------------------------| 
D|----------------------------------------------------------------| 
A|1-------1-------------------------------------------------------| 
E|----------------------------------------------------------------| 

2:13 

G|----------------------------------------------------------------| 
D|5-----------5-----------5-------3-----------3-----------3-------| 
A|----------------3---3---------------------------3---3-------3---| 
E|----------------------------------------------------------------| 

G|----------------------------------------------------------------| 
D|2-----------2---------------2---0-----h-1-----h-2-----h-3-h-4-h-| 
A|----------------0-------3---------------------------------------| 
E|----------------------------------------------------------------| 

G|----------------------------------------------------------------| 
D|5-----------5-----------5-------3-----------3-----------3-------| 
A|----------------3-----------3-------------------3---3-------3---| 
E|----------------------------------------------------------------| 

G|----------------------------------------2---------------2-------| 
D|2-----------2---------------2---0---3-------3---0---3-------3-/-| 
A|----------------0-------3---------------------------------------| 
E|----------------------------------------------------------------| 

G|----------------------------------------------------------------| 
D|5-----------5-----------5-------3-----------3-----------3-------| 
A|----------------3---3-------3-------------------3---3-------3---| 
E|----------------------------------------------------------------| 

G|--------------------------------------------------------------------| 
D|2-----------2---------------2---0-----h-1-----h-2-----h-3-h-4-h-5---| fades out here. 
A|----------------0-------3-------------------------------------------| 
E|--------------------------------------------------------------------| 

************************************ 
| x   Dead note 
| /   Slide up 
| h   Hammer-on 
************************************ 
		  

See also:

tabs Deep Purple - Demonds Eye tabs Deep Purple - Money Talks tabs Ira! - Eu Quero Sempre Mais (Com Pitty, intro) tabs Albert Hammond Jr - Holiday tabs Deep Purple - Smoke on the water (intro) tabs Deep Purple - Smoke on the Water (ver. 2)
e-chords

Other versions:

tabs The Cyrkle - Turn Down Day
auto scroll beats size up size down change color hide chords drawings
tab show chords e-chords YouTube Clip e-chords hide all tabs e-chords go to top tab

share