The Cult

Rain

The Cult

tabs Expert expert

save to print version add songbook text version e-mail correct tuner
chordsukulelecavacokeyboardtabbassdrumsharmonicaflute Guitar Pro
close

there isn't a video lesson for this song

chords

Rain

Written by Ian Astbury/Billy Duffy

	  		 
E||--------------------------------|--------------------------------| 
B||------------3--------------1----|--------------------------------| 
G||-------2--------------2---------|------------0-------------------| 
D||--0--------------0--------------|-------2-------------------0----| 
A||--------------------------------|--3-------------------2---------| 
E||--------------------------------|-----------------3--------------| 
 
 
                                                                  
-----------------1----0--------|--------------------------------| 
------------3------------------|-----------------1----0----1----| 
-------2-----------------------|------------0-------------------| 
--0----------------------------|-------2------------------------| 
-------------------------------|--3-----------------------------| 
-------------------------------|--------------------------------| 
 
 
                                                                             
|--------------------------------------|----------------------------------|| 
|------6--5-------------6--5-----8--8--|--6--5--------------5-------------|| 
|*--7----------7--7--7--------5--------|--------5--5--5--7-----7--5------*|| 
|*-------------------------------------|---------------------------------*|| 
|--------------------------------------|----------------------------------|| 
|--------------------------------------|----------------------------------|| 
 
 
                                                               
------------------------------|------------------------------| 
------------------------------|------------------------------| 
------7------7------7------7--|------5------5----------------| 
------7------7------7------7--|------5------5------5------5--| 
--5-5-5--5-5-5--5-5-5--5-5-5--|--3-3-3--3-3-3------5------5--| 
------------------------------|----------------3-3-3--3-3-3--| 
 
 
                                                               
------------------------------|------------------------------| 
------------------------------|------------------------------| 
------7------7------7------7--|------5------5----------------| 
------7------7------7------7--|------5------5------5------5--| 
--5-5-5--5-5-5--5-5-5--5-5-5--|--3-3-3--3-3-3------5------5--| 
------------------------------|----------------3-3-3--3-3-3--| 
 
 
                                                               
------------------------------|------------------------------| 
------------------------------|------------------------------| 
------7------7----------------|------5------5----------------| 
------7------7------3------3--|------5------5------5------5--| 
--5-5-5--5-5-5------3------3--|--3-3-3--3-3-3------5------5--| 
----------------1-1-1--1-1-1--|----------------3-3-3--3-3-3--| 
 
 
                                                               
------------------------------|------------------------------| 
------------------------------|------------------------------| 
------7------7----------------|------5------5----------------| 
------7------7------3------3--|------5------5------5------5--| 
--5-5-5--5-5-5------3------3--|--3-3-3--3-3-3------5------5--| 
----------------1-1-1--1-1-1--|----------------3-3-3--3-3-3--| 
 
 
                                                                             
|--------------------------------------|----------------------------------|| 
|------6--5-------------6--5-----8--8--|--6--5--------------5-------------|| 
|*--7----------7--7--7--------5--------|--------5--5--5--7-----7--5------*|| 
|*-------------------------------------|---------------------------------*|| 
|--------------------------------------|----------------------------------|| 
|--------------------------------------|----------------------------------|| 
 
 
                                                        4x                     
-----------------------------------|--------------------||-------------------| 
-----------------------------------|--------------------||-------------------| 
*--7-7-7-7-7-7-7-7-7-7-7-7-7-7-7-7/|--5----------------*||--7----------------| 
*--7-7-7-7-7-7-7-7-7-7-7-7-7-7-7-7/|--5----------------*||--7----------------| 
---5-5-5-5-5-5-5-5-5-5-5-5-5-5-5-5/|--3-----------------||--5----------------| 
-----------------------------------|--------------------||-------------------| 
 
 
                                                                          3x 
|--------------------------------------|----------------------------------|| 
|------6--5-------------6--5-----8--8--|--6--5--------------5-------------|| 
|*--7----------7--7--7--------5--------|--------5--5--5--7-----7--5------*|| 
|*-------------------------------------|---------------------------------*|| 
|--------------------------------------|----------------------------------|| 
|--------------------------------------|----------------------------------|| 
 
 
                                                                               
--------------------------------------|--------------------------------------| 
--------------------------------------|--6--5-----6--6--------6--5-----------| 
--7--5--4-----------4--7--5--4--------|--------7--------7--7--------7--7--7--| 
-----------7h-5--7--------------7--7--|--------------------------------------| 
--------------------------------------|--------------------------------------| 
--------------------------------------|--------------------------------------| 
 
 
                                                                              
--------------------------------------|-------------------------------------| 
--5--8--8--6--5-----6--5--------------|-----6--5-------------6--5-----8--8--| 
-----------------7--------7--7--5--7--|--7----------7--7--7--------5--------| 
--------------------------------------|-------------------------------------| 
--------------------------------------|-------------------------------------| 
--------------------------------------|-------------------------------------| 
 
 
                                                        
---------------------------------|-------------------|| 
--6--5--------------5------------|-------------------|| 
--------5--5--5--7-----7--5------|--5----------------|| 
---------------------------------|-------------------|| 
---------------------------------|-------------------|| 
---------------------------------|-------------------|| 
 
 
_______________________________________________________ 
Contribuição: Fábio Fernandes([email protected]) 

		  

auto scroll beats size up size down change color hide chords drawings
tab show chords e-chords YouTube Clip e-chords hide all tabs e-chords go to top tab

share