The Cult

home > The Cult

Breathe Tab

The Cult

Difficulty: nolevelnolevel

by terr%5Fschmitz

tuner correct add songbook print version text version save to e-mail
chordsukulelecavacokeyboardtabbassdrumsharmonicsflute Guitar Pro
chords

Breathe

  		
E|--2--3-2-----------3-2--2--3-2----3-----3-2--2--3-2-----------3-2--2--3-2-| 
B|--3-------3--1---1------3-------3-3---1------3-------3--1---1------3------| 
G|--2----------2----------2---------0----------2----------2----------2------| 
D|-------------0------------------------------------------0-----------------| 
A|--------------------------------------------------------------------------| 
E|--------------------------------------------------------------------------| 


E|---3--| 
B|-3-3--| 
G|---0--| 
D|---0--| 
A|---2--| 
E|---3--| 

After the intro comes one of the riffs, followed by: 

E|--------------------------------------------------------------------------| 
B|--------------------------------------------------------------------------| 
G|--------------------------------------------------------------------------| 
D|--5-5-5-5--5-5-5-5--5-5---8-8-8-8--8-8-8-8--8-8---------------------------| 
A|--5-5-5-5--5-5-5-5--5-5---8-8-8-8--8-8-8-8--8-8---------------------------| 
E|--3-3-3-3--3-3-3-3--3-3---6-6-6-6--6-6-6-6--6-6---------------------------| 




Chorus 


E|--2--3-2-------| 
B|--3-------3----|  
G|--2------------| 
D|-------------3-|   (3x) 
A|-------------3-|  
E|-------------1-| 
	  

Search Paypal
auto scroll beats size up size down change color hide chords drawings
tab show chords e-chords YouTube Clip e-chords hide all tabs e-chords go to top tab