The Cross

Shove It

The Cross

tabs nolevel nolevel

by  LUCICAMARGO

save to print version add songbook text version e-mail correct tuner
chordsukulelecavacokeyboardtabbassdrumsharmonicaflute Guitar Pro
close

there isn't a video lesson for this song

chords

Shove It

	  		

Part A: 
e|------------------------------| 
B|------------------------------| 
G|------------------------------| 
D|--4-----4-----4-----4--5------| 
A|--4--4--4--4--4--4--4--5------| 
E|--2--2--2--2--2--2--2--3------| 

Part B: 
e|------------------------------| 
B|------------------------------| 
G|------------------------------| 
D|-----5------------------------| 
A|--5--5------------------------| 
E|--3--3------------------------| 

Part C: 
e|------------------------------| 
B|------------------------------| 
G|------------------------------| 
D|--------7---------------------| 
A|--7--7--7--7------------------| 
E|--5--5--5--5------------------| 

Chorus: 
e||--------------|| x4  ||---------------|| x2  |------------------|----------------| 
B||--------------||     ||---------------||     |------------------|----------------| 
G||--------------||     ||---------------||     |------------------|----------------| 
D||--7--5--10----||     ||--10--7--12----||     |--12------12------|--12--12--12----| 
A||--7--5--10----||     ||--10--7--12----||     |--12------12------|--12--12--12----| 
E||--5--3--8-----||     ||--8---5--10----||     |--10------10------|--10--10--10----| 



Song: 

Part A, part B, part C 
Part A, part B, part C 
Part A 
Part A, part C 
Part A 
Part A, part C 
Chorus 
Part A 
Part A, part C 
Chorus 

Solo: 
e||-------------------------|| x3 
B||-------------------------|| 
G||-------------------------|| 
D||-------------------------|| 
A||-------------------------|| 
E||----8--7--6--6--5-6-5-6--|| 
p.m.: ....................... 

Part A 
Part A 
Chorus 
Part C x10 

Outtro: 
e||-----------------|| x3  |---------| 
B||-----------------||     |---------| 
G||-----------------||     |---------| 
D||--5-----5-----5--||     |--5------| 
A||--5--5--5--5--5--||     |--5------| 
E||--3--3--3--3--3--||     |--3------| 
p.m.:...............         ... 
		  

Full key step upFull key step up
Half key step upHalf key step up
Half key step downHalf key step down
Full key step downFull key step down
hide glossary

See also:

tabs Deep Purple - Sometimes a Feel Like Screaming tabs Deep Purple - Mistreated tabs Deep Purple - Smoke on the Water (ver. 2) tabs Ira! - Vitrine Viva tabs Doa - Sexyest Girl tabs Deep Purple - Ted The Mechanic
e-chords

Other versions:

tabs The Cross - Shove It
auto scroll beats size up size down change color hide chords drawings
tab show chords e-chords YouTube Clip e-chords hide all tabs e-chords go to top tab

share with facebook