The Corrs

home > The Corrs

No Frontiers Tab

The Corrs

Difficulty: BeginnerBeginner

tuner correct add songbook print version text version save to e-mail
chordsukulelecavacokeyboardtabbassdrumsharmonicsflute Guitar Pro
chords

No Frontiers

Year: 1999 - Album: Dreams: The Ultimate Corrs Collection

(MacCarthy)

  		 
Intro 
 
Play this tab for the intro: 
 
 
e-------3--------3--------3--------3---------3--------3--------3-------3-| 
B-----1--------1--------1--------1---------1--------1--------1-------1---| 
G---2--------2--------2--------0---------2--------2--------2-------0-----| 
D-3--------3--------3--------2---------3--------3--------3-------2-------| 
A------------------------------------------------------------------------| 
E------------------------------------------------------------------------| 
  Fadd9                    C5      Fadd9                       C5                                                        
 
 
Verse One 
 
Play this and every tab beneath the lyrics:  
 
e-------3--------3--------3--------3--------3--------3--------1--------1-| 
B-----1--------1--------1--------1--------1--------1--------1--------1---| 
G---0--------0--------0--------0--------2--------2--------2--------2-----| 
D-0--------0--------2--------2--------3--------3--------0--------0-------| 
A------------------------------------------------------------------------| 
E------------------------------------------------------------------------| 
  Gadd11          C5               Fadd9              Dm7 
 
    If    life is a        river and     your  heart is a boat 
 
 
e-------0--------0--------0--------0--------3--------3--------3--------3-| 
B-----1--------1--------1--------1--------1--------1--------0--------0---| 
G---0--------0--------0--------0--------0--------0--------0--------0-----| 
D-2--------2--------2--------2--------0--------0--------0--------0-------| 
A------------------------------------------------------------------------| 
E------------------------------------------------------------------------| 
  C                                  Gadd11              G 
      
   And just like a water    baby  baby           born to      float 
 
 
Verse Two 
 
 
e-------3--------3--------3--------3--------3--------3--------1--------1-| 
B-----1--------1--------1--------1--------1--------1--------1--------1---| 
G---0--------0--------0--------0--------2--------2--------2--------2-----| 
D-0--------0--------2--------2--------3--------3--------0--------0-------| 
A------------------------------------------------------------------------| 
E------------------------------------------------------------------------| 
  Gadd11          C5               Fadd9              Dm7 
 
 And if   life  is a  wild  wind              that blows way on high 
 
 
e-------0--------0--------0--------0--------3--------3--------3--------3-| 
B-----1--------1--------1--------1--------1--------1--------0--------0---| 
G---0--------0--------0--------0--------0--------0--------0--------0-----| 
D-2--------2--------2--------2--------0--------0--------0--------0-------| 
A------------------------------------------------------------------------| 
E------------------------------------------------------------------------| 
  C                                  Gadd11              G 
      
      And your heart is Amelia        dying to fly 
 
 
Pre-chorus 
 
e-------1--------1--------3--------3--------3--------3--------0--------0-| 
B-----1--------1--------0--------0--------2--------2--------2--------2---| 
G---2--------2--------0--------0--------3--------3--------2--------2-----| 
D-3--------3--------0--------0--------2--------2--------2--------2-------| 
A------------------------------------------------------------------------| 
E------------------------------------------------------------------------| 
  F                 G                Edim              A 
 
   Heaven              Knows                No frontiers_____________  
 
 
e-------1--------1--------3--------3--------3--------3--------3--------3-| 
B-----3--------3--------0--------0--------1--------1--------1--------1---| 
G---2--------2--------0--------0--------2--------2--------2--------0-----| 
D-0--------0--------0--------0--------3--------3--------3--------2-------| 
A------------------------------------------------------------------------| 
E------------------------------------------------------------------------| 
  Dm                G                 Fadd9                     Gadd11 
 
     And I've seen heaven   in  your  eyes___  
 
 
Verse Three 
 
 
e-------3--------3--------3--------3--------3--------3--------1--------1-| 
B-----1--------1--------1--------1--------1--------1--------1--------1---| 
G---0--------0--------0--------0--------2--------2--------2--------2-----| 
D-0--------0--------2--------2--------3--------3--------0--------0-------| 
A------------------------------------------------------------------------| 
E------------------------------------------------------------------------| 
  Gadd11          C5               Fadd9              Dm7 
 
 And if   life  is a  bar room           in wich we must wait 
 
 
e-------0--------0--------0--------0--------3--------3--------3--------3-| 
B-----1--------1--------1--------1--------1--------1--------0--------0---| 
G---0--------0--------0--------0--------0--------0--------0--------0-----| 
D-2--------2--------2--------2--------0--------0--------0--------0-------| 
A------------------------------------------------------------------------| 
E------------------------------------------------------------------------| 
  C                                  Gadd11              G 
      
     'Round the man with his fingers   on the ivory  gates 
 
 
Verse Four 
 
 
e-------3--------3--------3--------3--------3--------3--------1--------1-| 
B-----1--------1--------1--------1--------1--------1--------1--------1---| 
G---0--------0--------0--------0--------2--------2--------2--------2-----| 
D-0--------0--------2--------2--------3--------3--------0--------0-------| 
A------------------------------------------------------------------------| 
E------------------------------------------------------------------------| 
  Gadd11          C5               Fadd9              Dm7 
 
     Where we sing until dawn of our fears and our  fates 
 
 
e-------0--------0--------0--------0--------3--------3--------3--------3-| 
B-----1--------1--------1--------1--------1--------1--------0--------0---| 
G---0--------0--------0--------0--------0--------0--------0--------0-----| 
D-2--------2--------2--------2--------0--------0--------0--------0-------| 
A------------------------------------------------------------------------| 
E------------------------------------------------------------------------| 
  C                                  Gadd11              G 
      
      And we stack all the dead men   in self addressed crates  
 
 
Chorus 
 
 
e-------0--------0--------0--------0--------3--------3--------4--------4-| 
B-----1--------1--------1--------1--------0--------0--------3--------3---| 
G---0--------0--------0--------0--------0--------0--------4--------4-----| 
D-2--------2--------2--------2--------0--------0--------3--------3-------| 
A------------------------------------------------------------------------| 
E------------------------------------------------------------------------| 
  C                                    G                 Fdim 
 
In your eyes faint as the singing of a lark that somehow this black  
 
 
e-------0--------0--------0--------0--------1--------1--------1--------1-| 
B-----1--------1--------1--------1--------1--------1--------1--------1---| 
G---2--------2--------2--------2--------2--------2--------2--------2-----| 
D-2--------2--------2--------2--------3--------3--------3--------3-------| 
A------------------------------------------------------------------------| 
E------------------------------------------------------------------------| 
  Am                                   F 
 
  night      feels warmer for the spark                    warmer for the  
 
 
e-------0--------0--------0--------0--------3--------3--------4--------4-| 
B-----1--------1--------1--------1--------0--------0--------3--------3---| 
G---0--------0--------0--------0--------0--------0--------4--------4-----| 
D-2--------2--------2--------2--------0--------0--------3--------3-------| 
A------------------------------------------------------------------------| 
E------------------------------------------------------------------------| 
  C                                    G                 Fdim 
 
     spark          to hold us till the day     when fear will lose its grip 
 
 
e-------0--------0--------0--------0--------1--------1--------3--------3-| 
B-----1--------1--------1--------1--------1--------1--------0--------0---| 
G---2--------2--------2--------2--------2--------2--------0--------0-----| 
D-2--------2--------2--------2--------3--------3--------0--------0-------| 
A------------------------------------------------------------------------| 
E------------------------------------------------------------------------| 
  Am                                 F                 G 
 
              And heaven has its ways       Heaven Knows 
 
 
e-------3--------3--------0--------0--------1--------1--------3--------3-| 
B-----2--------2--------2--------2--------3--------3--------0--------0---| 
G---3--------3--------2--------2--------2--------2--------0--------0-----| 
D-2--------2--------2--------2--------0--------0--------0--------0-------| 
A------------------------------------------------------------------------| 
E------------------------------------------------------------------------| 
  Edim              A                 Dm                G 
 
       No frontiers______________          And I've seen heaven in your  
 
 
e-------3--------3--------3--------3--| 
B-----1--------1--------1--------1----| 
G---2--------2--------2--------0------| 
D-3--------3--------3--------2--------| 
A-------------------------------------| 
E-------------------------------------| 
  Fadd9                   Gadd11 
 
   eyes______________ 
 
 
Verse Five 
 
 
e-------3--------3--------3--------3--------3--------3--------1--------1-| 
B-----1--------1--------1--------1--------1--------1--------1--------1---| 
G---0--------0--------0--------0--------2--------2--------2--------2-----| 
D-0--------0--------2--------2--------3--------3--------0--------0-------| 
A------------------------------------------------------------------------| 
E------------------------------------------------------------------------| 
  Gadd11          C5               Fadd9              Dm7 
 
   If your life is a rough bed of brambles and nails 
 
 
e-------0--------0--------0--------0--------3--------3--------3--------3-| 
B-----1--------1--------1--------1--------1--------1--------0--------0---| 
G---0--------0--------0--------0--------0--------0--------0--------0-----| 
D-2--------2--------2--------2--------0--------0--------0--------0-------| 
A------------------------------------------------------------------------| 
E------------------------------------------------------------------------| 
  C                                  Gadd11              G 
      
     And your spirit's a slave to man's whips and man's jails 
 
 
Verse Six 
 
 
e-------3--------3--------3--------3--------3--------3--------1--------1-| 
B-----1--------1--------1--------1--------1--------1--------1--------1---| 
G---0--------0--------0--------0--------2--------2--------2--------2-----| 
D-0--------0--------2--------2--------3--------3--------0--------0-------| 
A------------------------------------------------------------------------| 
E------------------------------------------------------------------------| 
  Gadd11          C5               Fadd9              Dm7 
 
     Where you thirst and you hunger for justice and right 
 
e-------0--------0--------0--------0--------3--------3--------3--------3-| 
B-----1--------1--------1--------1--------1--------1--------0--------0---| 
G---0--------0--------0--------0--------0--------0--------0--------0-----| 
D-2--------2--------2--------2--------0--------0--------0--------0-------| 
A------------------------------------------------------------------------| 
E------------------------------------------------------------------------| 
  C                                  Gadd11              G 
      
      And your heart is a pure flame   of man's constant night 
  
 
Chorus 
 
 
e-------0--------0--------0--------0--------3--------3--------4--------4-| 
B-----1--------1--------1--------1--------0--------0--------3--------3---| 
G---0--------0--------0--------0--------0--------0--------4--------4-----| 
D-2--------2--------2--------2--------0--------0--------3--------3-------| 
A------------------------------------------------------------------------| 
E------------------------------------------------------------------------| 
  C                                    G                 Fdim 
 
In your eyes faint as the singing of a lark that somehow this black  
 
 
e-------0--------0--------0--------0--------1--------1--------1--------1-| 
B-----1--------1--------1--------1--------1--------1--------1--------1---| 
G---2--------2--------2--------2--------2--------2--------2--------2-----| 
D-2--------2--------2--------2--------3--------3--------3--------3-------| 
A------------------------------------------------------------------------| 
E------------------------------------------------------------------------| 
  Am                                   F 
 
  night      feels warmer for the spark                    warmer for the  
 
 
e-------0--------0--------0--------0--------3--------3--------4--------4-| 
B-----1--------1--------1--------1--------0--------0--------3--------3---| 
G---0--------0--------0--------0--------0--------0--------4--------4-----| 
D-2--------2--------2--------2--------0--------0--------3--------3-------| 
A------------------------------------------------------------------------| 
E------------------------------------------------------------------------| 
  C                                    G                 Fdim 
 
     spark          to hold us till the day     when fear will lose its grip 
 
 
e-------0--------0--------0--------0--------1--------1--------1--------1-| 
B-----1--------1--------1--------1--------1--------1--------1--------1---| 
G---2--------2--------2--------2--------2--------2--------2--------2-----| 
D-2--------2--------2--------2--------3--------3--------3--------3-------| 
A------------------------------------------------------------------------| 
E------------------------------------------------------------------------| 
  Am                                 F                  
 
              And heaven has its ways               And heaven has its     
 
 
e-------0--------0--------0--------0--------3--------3--------4--------4-| 
B-----1--------1--------1--------1--------0--------0--------3--------3---| 
G---0--------0--------0--------0--------0--------0--------4--------4-----| 
D-2--------2--------2--------2--------0--------0--------3--------3-------| 
A------------------------------------------------------------------------| 
E------------------------------------------------------------------------| 
  C                                    G                 Fdim 
 
   ways          When all will harmonise         And you know what's in our    
   
   
  
e-------0--------0--------0--------0--------1--------1--------3--------3-| 
B-----1--------1--------1--------1--------1--------1--------0--------0---| 
G---2--------2--------2--------2--------2--------2--------0--------0-----| 
D-2--------2--------2--------2--------3--------3--------0--------0-------| 
A------------------------------------------------------------------------| 
E------------------------------------------------------------------------| 
  Am                                 F                 G 
 
   hearts       the dream will realise         Heaven knows            
 
 
e-------3--------3--------0--------0--------1--------1--------3--------3-| 
B-----2--------2--------2--------2--------3--------3--------0--------0---| 
G---3--------3--------2--------2--------2--------2--------0--------0-----| 
D-2--------2--------2--------2--------0--------0--------0--------0-------| 
A------------------------------------------------------------------------| 
E------------------------------------------------------------------------| 
  Edim              A                 Dm                G 
 
       no frontiers______________          And I've seen heaven in your  
 
 
e-------1--------1--------3--------3----------3--------3-------------0------| 
B-----1--------1--------0--------0----------2--------2------------2---------| 
G---2--------2--------0--------0----------3--------3-----------2------------| 
D-3--------3--------0--------0----------2--------2----------2---------------| 
A---------------------------------------------------------------------------| 
E---------------------------------------------------------------------------| 
  F                G                   Edim               A 
 
   eyes 
               Heaven   knows,       no frontiers_________   
 
 
e--1-----------3-----------------------3----------3----------3-------3----0-| 
B--3-----------0---------------------1----------1----------1-------1------1-| 
G--2-----------0-------------------2----------2----------0-------0--------0-| 
D--0-----------0-----------------3----------3----------2-------0----------2-| 
A--------------2----------------------------------------------------------3-| 
E--------------3------------------------------------------------------------| 
   Dm          G                Fadd9                 C5     Gadd11       C  
 
 And I've seen heaven in your__ eyes______________ 
 

	  

Full key step upFull key step up
Half key step upHalf key step up
Half key step downHalf key step down
Full key step downFull key step down
Search Paypal
auto scroll beats size up size down change color hide chords drawings
tab show chords e-chords YouTube Clip e-chords hide all tabs e-chords go to top tab