The Corrs

Breathless

The Corrs

tabs Beginner beginner

save to print version add songbook text version e-mail correct tuner
chordsukulelecavacokeyboardtabbassdrumsharmonicaflute Guitar Pro
close
breathless-by-the-corrs

there is a video lesson for this song

chords

Breathless

Year: 2000 - Album: Works

	  		
 E|--------------------------------------------
 B|--------------------------------------------
 G|-11--9-8--11--9-8---------------------------    
 D|--------------------------------------------
 A|--------------------------------------------
 E|--------------------------------------------

Sgunda parte

 E|--------------------------------------------
 B|--------------------------------------------
 G|-11---9-8-6~~---9--8-6-4~--8-6-3-4----------
 D|--------------------------------------------
 A|--------------------------------------------
 E|--------------------------------------------


B              F#
The daylight's fading slowly
C#m           G#m    F#       B
But time with you is standing still
           F#
I'm waiting for you only
C#m           G#m       F#     E
The slightest touch and I feel weak

   F#     G#m
 I cannot lie
      E     F#     B
 From you I cannot hide
         E      F#      G#m
 And I'm losing will to try
       E              F#
 Can't hide it, can't fight it

   E         A
So go on, go on
        F#m       B
Come on leave me breathless
E               A
Tempt me, tease me
         F#m      B
Until I can't deny this
E         A
Loving feeling
        F#m           B         
Make me long for your kiss
E         A       B
Go on, go on, yeah (come on)


Intro (Part B)

B              F#
And if there's no tomorrow
C#m        G#m     F#       B
And all we have is here and now
          F#
I'm happy just to have you
C#m            G#m    F#       E  
You're all the love I need somehow

     F#     G#m
It's like a dream
E            F#    B
Although I'm not asleep
      E     F#      G#m
And I never want to wake up
      E              F#
Don't lose it, don't leave it

   E         A
So go on, go on
        F#m      B
Come on leave me breathless
E               A
Tempt me, tease me
         F#m    B
Until I can't deny this
E         A
Loving feeling
        F#m          B         
Make me long for your kiss
E         A       B
Go on, go on, yeah (come on)


Intro (Part A and B, but play Part A only once)

E F#      G#m 
  I can't lie
     E     F#     B
From you I cannot hide
         E       F#      G#m
And I've lost my will to try
      E              F#        
Can't hide it, can't fight it


   E         A
So go on, go on
        F#m      B
Come on leave me breathless
E               A
Tempt me, tease me
         F#m    B
Until I can't deny this
E         A
Loving feeling
        F#m          B         
Make me long for your kiss
E         A    
Go on, go on
        F#m      B
Come on leave me breathless
E         A    
Go on, go on
        F#m      B
Come on leave me breathless
E         A    
Go on, go on
        F#m      B
Come on leave me breathless
E      E E E
Go on, go on

Solo:

E |----------------------------------------------
B |---9///12~~~\--12p11-----12p11----------/12~~
G |---------------------11--------11-//13~~------
D |----------------------------------------------
A |----------------------------------------------
e |----------------------------------------------


E |------11-12-11~~-//14~-12-11-12~~----------
B |---11--------------------------------------
G |-------------------------------------------
D |-------------------------------------------
A |-------------------------------------------
e |-------------------------------------------

E |---\-9/11~/7------------------------
B |-------------------------------------------
G |-------------------------------------------
D |-------------------------------------------
A |-------------------------------------------
e |-------------------------------------------
		  

Full key step upFull key step up
Half key step upHalf key step up
Half key step downHalf key step down
Full key step downFull key step down
hide glossary

See also:

tabs Damien Rice - Dogs tabs The Corrs - Little Wing tabs Westlife - To Be Loved tabs Damien Rice - Amie tabs Lisa Hannigan - Splishy Splashy tabs Damien Rice - Delicate
e-chords

Other versions:

tabs The Corrs - Breathless
auto scroll beats size up size down change color hide chords drawings
tab show chords e-chords YouTube Clip e-chords hide all tabs e-chords go to top tab

share