The Celibate Rifles

Tick Tock

The Celibate Rifles

tabs Easy easy

save to print version add songbook text version e-mail correct tuner
chordsukulelecavacokeyboardtabbassdrumsharmonicaflute Guitar Pro
close

there isn't a video lesson for this song

chords

Tick Tock

	  		(INTRO) 
 
 
   Am 
 
|------------------------------------------------------------|  
|--1-1-1-1-0-1-0-1-0-1---------------------------------------| 
|--2-2-2-2-2-2-2-2-2-2---------------------------------------|  
|--2-2-2-2-2-2-2-2-2-2---------------------------------------| 
|------------------------------------------------------------|  
|------------------------------------------------------------| 
 
 
Bass arrannged for guitar. listen to track for struming 
 
|------------------------------------------------------------| 
|------------------------------------------------------------| 
|------------------------------------------------------------| 
|--2-2-------2-2-2-4-5---------------------------------------| 
|--0-0-------0-0-0-2-3-3-2-3-2-3-5---------------------------| 
|------3-2-3-----------1-0-1-0-1-3---------------------------| 
 
 
|------------------------------------------------------------| 
|------------------------------------------------------------| 
|------------------------------------------------------------| 
|--2-2-------2-2-2-4-5---------5-4---------------------------| 
|--0-0-------0-0-0-2-3-3-2-3-2-3-2---------------------------| 
|------3-2-3-----------1-0-1-0-------------------------------| 
 
 
|------------------------------------------------------------| 
|------------------------------------------------------------| 
|------------------------------------------------------------| 
|--5-5-5-5---------2-2-2-2-----------------------------------| 
|--3-3-3-3-5-5-5-5-0-0-0-0-3-3-3-3---------------------------| 
|----------3-3-3-3---------1-1-1-1---------------------------| 
 
 
|------------------------------------------------------------| 
|------------------------------------------------------------| 
|------------------------------------------------------------| 
|--5-5-5-5---------------------------------------------------| 
|--3-3-3-3-5-5-5-5-3-3-3-3-----------------------------------| 
|----------3-3-3-3-1-1-1-1-----------------------------------| 
 
end riff 
|------------------------------------------------------------| 
|------------------------------------------------------------| 
|------------------------------------------------------------| 
|--2222-7777-----------2222-7777---------------------2-------| 
|--0000-5555-7777-2222-0000-5555-7777-2222-3-33-2-22-0-------| 
|------------5555-1111-----------5555-0000-1-11-0-00---------| 
 
Snap crackle pop it's nine o' clock  
Radio's tuned to John  
It's a Lemon Liquid Love affair  
Another perfect day begun  
Valium dulls the memory  
Of lifetimes long ago  
She never dreamt she'd just be meant  
To cook and wash and sew  
 
How did it ever come to this  
It's not the life I choose  
Mindless repetition  
Round and round we go, oh no...  
 
Tick tock it's three o' clock  
Washing on the line  
Cancel the hairdresser  
She hasn't got the time  
Hello kids, how was school  
Was everything OK  
Got stoned on history  
Just another boring day  
 
How did it ever come to this  
It's not the life I choose  
Mindless repetition  
Round and round we go, oh no...  
 
Tick tock it's six o' clock  
Dinner's on the plate  
Hubby's on the phone D.U.I.  
Sorry honey I'll be late  
Throughout the course of history  
Roles have never changed  
But something better happen  
Before we all get too estranged  

		  

Full key step upFull key step up
Half key step upHalf key step up
Half key step downHalf key step down
Full key step downFull key step down
hide glossary

See also:

tabs Powderfinger - Love Your Way tabs Midnight Oil - Hercules tabs John Butler Trio - Ocean tabs Thirsty Merc - Someday, Someday tabs Lee Kernaghan - High Country Solo tabs The Skyhooks - Living In The 70s
e-chords

Other versions:

tabs The Celibate Rifles - Tick Tock
auto scroll beats size up size down change color hide chords drawings
tab show chords e-chords YouTube Clip e-chords hide all tabs e-chords go to top tab

share