The Calling

home > The Calling

Wherever you will go Tab

The Calling

Difficulty: ExpertExpert

by Matiolas

tuner correct add songbook print version text version save to e-mail
chordsukulelecavacokeyboardtabbassdrummharmonicsflute Guitar Pro
chords

Wherever you will go

Year: 2001 -

	                 C 
E------------------------------ 
B-----------1------------------ 
G-----0---0---0---------------- 
D---2---2-------2-------------- 
A-3---------------------------- 
E------------------------------ 
 
              Am7 
E------------------------------ 
B-----------1------------------ 
G-----0---0---0---------------- 
D---0---0-------0-------------- 
A-2---------------------------- 
E------------------------------ 
 
             G4 B 
E------------------------------ 
B-----------1------------------ 
G-----0---0---0---------------- 
D---2---2-------2-------------- 
A-0---------------------------- 
E------------------------------ 
 
             F 
E------------------------------ 
B------------------------------ 
G-----------1------------------ 
D-----2---2---2---------------- 
A---3---3-------3-------------- 
E-1---------------------------- 

	  

there is a video lesson for this song
view full video
Full key step upFull key step up
Half key step upHalf key step up
Half key step downHalf key step down
Full key step downFull key step down
Search Paypal
auto scroll beats size up size down change color hide chords drawings
tab show chords e-chords YouTube Clip e-chords hide all tabs e-chords go to top tab