The Browning

Burn This World

The Browning

tabs

by  JOAOEWERTON

save to print version add songbook text version e-mail correct tuner
chordsukulelecavacokeyboardtabbassdrumsharmonicaflute Guitar Pro
close

there isn't a video lesson for this song

chords

Burn This World

	  		

INTRO (0:06 - 0:10) 
D|---------------------------------------------------------------------------| 
A|---------------------------------------------------------------------------| 
F|---------------------------------------------------------------------------| 
C|---------------------------------------------------------------------------| 
G|5-------4-----------0-1-0-------5-------4----------------------------------| 
C|--3-0-3---3-0-3-0-3-------5-3-2---3-0-3------------------------------------| 


(0:11 - 0:22) 
D|---------------------------------------------------------------------------| 
A|---------------------------------------------------------------------------| 
F|---------------------------------------------------------------------------| 
C|---------------------------------------------------------------------------|x4 
G|5-------4-----------0-1-0-------5-------4-----------0-1-0------------------| 
C|--3-0-3---3-0-3-0-3-------5-3-2---3-0-3---3-0-3-0-3-------5-3-2------------| 

(0:22 - 0:32) 
D|---------------------------------------------------------------------------| 
A|---------------------------------------------------------------------------| 
F|---------------------------------------------------------------------------| 
C|---------------------------------------------------------------------------|x2 
G|0-0-----0-0---------0-0-0-0-0-0-0000----0000--------0-1-0------------------| 
C|0-0-----0-0---------1-1-1-1-1-1-0000----0000--------------5-3-2------------| 
  . .     . .         . . . . . . ....    .... 

(0:33 - 0:55) 
D|---------------------------------------------------------------------------|\ 
A|---------------------------------------------------------------------------| \ 
F|---------------------------------------------------------------------------|  \ 
C|---------------------------------------------------------------------------|x4 \ 
G|5-----------5-----1-0-----------5-----------5-----1-0---2x2x---------------|    \ 
C|0-0-0-0-0-0---3-0-----0-000-0-0-0-0-0-0-0-0---3-0-----0-3x3x---------------|     \ 
    . . . . .           . ... . .   . . . . .           .                           \ 
                                                                                     \ 
on the 4th time play this                                                            / 
D|---------------------------------------------------------------------------|      / 
A|---------------------------------------------------------------------------|     / 
F|---------------------------------------------------------------------------|    / 
C|---------------------------------------------------------------------------|   / 
G|5-----------5-----1-0---3-3/6----3-3/6-------------------------------------|  / 
C|0-0-0-0-0-0---3-0-----0-3-3/6----3-3/6-------------------------------------| / 
    . . . . . 

(0:55 - 1:07) 
D|---------------------------------------------------------------------------| 
A|---------------------------------------------------------------------------| 
F|---------------------------------------------------------------------------| 
C|0-----0-----0---0-----0-----0----------------------------------------------| 
G|0-00--0-00--0-000-00--0-00--0-002-22--2-22--2-222-22--2-22--2-22-----------| 
C|0-00--0-00--0-000-00--0-00--0-003-33--3-33--3-333-33--3-33--3-33-----------| 


(1:08 - 1:18) 
D|---------------------------------------------------------------------------| 
A|---------------------------------------------------------------------------| 
F|---------------------------------------------------------------------------| 
C|0-----0-----0---0-----0-----------------------------------------0----------| 
G|0-00--0-00--0-000-00--0-00--4-002-22--2-22--2-222-22--2-22--4-000----------| 
C|0-00--0-00--0-000-00--0-00----003-33--3-33--3-333-33--3-33----000----------| 
  . ..  . ..  . ... ..  . ..    ... ..  . ..  . ... ..  . ..    .. 

(1:20 - 1:30) 
D|---------------------------------------------------------------------------| 
A|---------------------------------------------------------------------------| 
F|---------------------------------------------------------------------------| 
C|--------------------------------------------0~~----------------------------| 
G|----0-4-0-------------------------------0-4-0~~-------------0-----------0-4| 
C|0-3-----0---------------------------0-3-----0~~-------------0-------0-3----| 
          .                                                    . 

breakdown? (1:31 - 1:53) 
D|---------------------------------------------------------------------------| 
A|---------------------------------------------------------------------------| 
F|---------------------------------------------------------------------------| 
C|---------------------------------------------------------------------------| 
G|---5---4-----0-1-0--4-1-0------5---4-----0-1-0------0-4--------------------| 
C|0----3----0---------------3-0----3----0---------0-3------------------------| 

(1:57 - 2:20) 
D|---------------------------------------------------------------------------|\ 
A|---------------------------------------------------------------------------| \ 
F|---------------------------------------------------------------------------|  \ 
C|---------------------------------------------------------------------------|x4 \ 
G|2x2x-5-----------5-----1-0-----------5-----------5-----1-0---2-2-----------|    \ 
C|3x3x-0-0-0-0-0-0---3-0-----0-000-0-0-0-0-0-0-0-0---3-0-----0-3-3-----------|     \ 
        . . . . .           . ... . .   . . . . .           .                       \ 
                                                                                     \ 
on the 4th time play this                                                            / 
D|---------------------------------------------------------------------------|      / 
A|---------------------------------------------------------------------------|     / 
F|---------------------------------------------------------------------------|    / 
C|---------------------------------------------------------------------------|   / 
G|5-----------5-----1-0---3-3/6----3-3/6-------------------------------------|  / 
C|0-0-0-0-0-0---3-0-----0-3-3/6----3-3/6-------------------------------------| / 
    . . . . . 

Outro breakdown (2:23 - 2:43) 
D|---------------------------------------------------------------------------| 
A|---------------------------------------------------------------------------| 
F|---------------------------------------------------------------------------| 
C|---------------------------------------------------------------------------|x2 
G|0-0-----0-0---------0-0-0-0-0-0-000----000--------0-1-0--------------------| 
C|0-0-----0-0---------1-1-1-1-1-1-000----000--------------5-3-2--------------| 
  . .     . .         . . . . . . ...    ... 
************************************ 

| .   palm mute 
| /   slide up 
| \   slide down 
| h   hammer-on 
| p   pull-off 
| ~   vibrato 
| +   harmonic 
| x   Mute note 
| b   Bend 
| pb  Pre-bend 
| br  Bend release 
| pbr Pre-bend release 
| brb Bend release bend 

************************************ 
		  

See also:

tabs Deep Purple - Smoke on the water (ver. 3) tabs Albert Hammond Jr - Holiday tabs Deep Purple - When a Blind man cries tabs Deep Purple - The Unwritten Law tabs Deep Purple - Highway Star tabs Ira! - Núcleo Base ( Acústico MTV)
e-chords

Other versions:

tabs The Browning - Burn This World
auto scroll beats size up size down change color hide chords drawings
tab show chords e-chords YouTube Clip e-chords hide all tabs e-chords go to top tab

share