The Bones

Half Of Nothing

The Bones

tabs

by  ALEFFEDERICO

save to print version add songbook text version e-mail correct tuner
chordsukulelecavacokeyboardtabbassdrumsharmonicaflute Guitar Pro
close

there isn't a video lesson for this song

chords

Half Of Nothing

	  		INTRO 
E-------------------------------------------------------------------------------| 
B-------------------------------------------------------------------------------| 
G-------------------------------------------------------------------------------| 
D--------------------66666666---------------------------------------------------| 
A--99999999-22222222-44444444-44444444--99999999-22222222-4444-2222-99999999----| 
E--77777777-00000000----------22222222--77777777-00000000-2222-0000-77777777----| 

INTRO SOLO 
E------------------------------------------------------------------------------------| 
B--7777777-7-5-3-5-0-9999999-14-12-10-12--9-7-5-7--2-2-0-0-2-2-0-0-5--9--5-9-3-9-12--| 
G------------------------------------------------------------------------------------| 
D------------------------------------------------------------------------------------| 
A------------------------------------------------------------------------------------| 
E------------------------------------------------------------------------------------| 

E-------------------------------| 
B-------------------------------| 
G-------------------------------| 
D-------------------------------| 
A--4----4----4----4-4-4-4-4444--| 
E--2----2----2----2-2-2-2-2222--| 


THOUSANDS OF MILES FROM A... 
E-----------------------------------------------------------------------------| 
B-----------------------------------------------------------------------------| 
G-----------------------------------------------------------------------------| 
D--------------------66666666-------------------------------------------------| 
A--99999999-22222222-44444444-44444444--99999999-22222222-4444-2222-99999999--| 
E--77777777-00000000----------22222222--77777777-00000000-2222-0000-77777777--| 


I THOUGHT I'D WRITE YOU A LOVE SONG... 
E-------------------------------------------------------------------------------| 
B-------------------------------------------------------------------------------| 
G-------------------------------------------------------------------------------| 
D-----------44444444----------44444444----------4444----------------------------| 
A--22222222-22222222-22222222-22222222-22222222-2222-6666-22222-44444-99999999--| 
E--00000000----------00000000----------00000000------4444-00000-22222-77777777--| 


ALL SO FAR AWAY... 
E-----------------------------------------------------------------------------| 
B-----------------------------------------------------------------------------| 
G-----------------------------------------------------------------------------| 
D--------------------66666666-------------------------------------------------| 
A--99999999-22222222-44444444-44444444--99999999-22222222-4444-2222-99999999--| 
E--77777777-00000000----------22222222--77777777-00000000-2222-0000-77777777--| 


I THOUGHT I'D WRITE YOU A LOVE SONG... 
E-------------------------------------------------------------------------------| 
B-------------------------------------------------------------------------------| 
G-------------------------------------------------------------------------------| 
D-----------44444444----------44444444----------4444----------------------------| 
A--22222222-22222222-22222222-22222222-22222222-2222-6666-22222-44444-99999999--| 
E--00000000----------00000000----------00000000------4444-00000-22222-77777777--| 


SOLO BACKING 
E-------------------------------------------------------------------------------| 
B-------------------------------------------------------------------------------| 
G-------------------------------------------------------------------------------| 
D-----------44444444--------------------44444444--------------------------------| 
A--22222222-22222222-66666666-44444444--22222222-22222222-44444-22222-99999999--| 
E--00000000----------44444444-22222222-----------00000000-22222-00000-77777777--| 

SOLO 
E-------------------------------------------------------------------------------------------| 
B--9-9--7-5-7-4--4-5-4-0-5-4-0-7-14-13-12-14-13-12-14-13-12-14-13-12-14--2-2-0-0-2-2-0-0-7--| 
G-------------------------------------------------------------------------------------------| 
D-------------------------------------------------------------------------------------------| 
A-------------------------------------------------------------------------------------------| 
E-------------------------------------------------------------------------------------------| 


I THOUGHT I'D WRITE YOU A LOVE SONG... 
E-------------------------------------------------------------------------------| 
B-------------------------------------------------------------------------------| 
G-------------------------------------------------------------------------------| 
D-----------44444444----------44444444----------4444----------------------------| 
A--22222222-22222222-22222222-22222222-22222222-2222-6666-22222-44444-99999999--| 
E--00000000----------00000000----------00000000------4444-00000-22222-77777777--| 

E----------------------------------------------------------------------------------------| 
B----------------------------------------------------------------------------------------| 
G----------------------------------------------------------------------------------------| 
D-----------44444444----------44444444----------4444-------------------------------------| 
A--22222222-22222222-22222222-22222222-22222222-2222-6666-22222-44444-99999999-66666666--| 
E--00000000----------00000000----------00000000------4444-00000-22222-77777777-44444444--| 

E--------------------------------------------------------| 
B--------------------------------------------------------| 
G--------------------------------------------------------| 
D--------------------------------------------------------| 
A--22222-44444-999-888-666-444--22222-44444-99-99-99-99--| 
E--00000-22222-777-666-444-222--00000-22222-77-77-77-77--| 

E---------------------------------| 
B---------------------------------| 
G---------------------------------| 
D---------------------------------| 
A--4----4----4----4-4-4-4-4444-9--| 
E--2----2----2----2-2-2-2-2222-7--| 
		  

See also:

tabs Deep Purple - Smoke on the water (ver. 3) tabs Albert Hammond Jr - Holiday tabs Deep Purple - When a Blind man cries tabs Deep Purple - The Unwritten Law tabs Deep Purple - Highway Star tabs Ira! - Núcleo Base ( Acústico MTV)
e-chords

Other versions:

tabs The Bones - Half Of Nothing
auto scroll beats size up size down change color hide chords drawings
tab show chords e-chords YouTube Clip e-chords hide all tabs e-chords go to top tab

share