The Black Keys

Summertime Blues

The Black Keys

tabs

by  TARIKIKE

save to print version add songbook text version e-mail correct tuner
chordsukulelecavacokeyboardtabbassdrumsharmonicaflute Guitar Pro
close

there isn't a video lesson for this song

chords

Summertime Blues

	  		
Intro: 


  0:00 

e|-x-x----------x-------------x-------------x--------------| 
B|-x-x----------x-------------x-------------x--------------| 
G|-x-x----------x-------------x-------------x--------------| 
D|---------------------------------------------------------| 
A|---------------------------------------------------------| 
E|-----0-3-4-5-----0-5-6-7-0-----0-0-3-4-5-----0-0-5-6-7-0-| 


  0:07 

e|-x--------------x---------------x---------------x---------| 
B|-x--------------x---------------x---------------x---------| 
G|-x--------------x---------------x---------------x---------| 
D|----------------------------------------------------------| 
A|----------------------------------------------------------| 
E|----0--0-3-4-5-----0-0-5-6-7-0-----0-0-0-3-4-5-----5-6-7-0| 



Verse: 


  0:15 
  I'm gonna raise a fuss, I'm gonna raise a holler 


  0:19 

e|-----------x---------------x-| 
B|-----------x---------------x-| 
G|-----------x---------------x-| 
D|-----------------------------| 
A|-----------------------------| 
E|--0-3-4-5-----0-0-5-6-7-0----| 


  0:22 
  'Bout workin' all summer just to try and raise a dollar 


  0:26 

e|-----------x---------------x-| 
B|-----------x---------------x-| 
G|-----------x---------------x-| 
D|-----------------------------| 
A|-----------------------------| 
E|--0-3-4-5-----0-0-5-6-7-0----| 

   
  0:30 
  Told my congressman and he said, quote: 
e|-0-| 
B|-2-| 
G|-2-|  
D|-2-| 
A|-0-| 
E|-x-| 


  0:34 
  "I'd like to help you son, but you're too young to vote."  


  0:37 
  Sometimes I wonder what I'm-a-gonna do 
e|-0-| 
B|-2-| 
G|-2-|  
D|-2-| 
A|-0-| 
E|-x-| 


  0:40 
  'cause there ain't no cure for the Summertime Blues 
       

  0:44 
                 1! 2! 3! 4! 
e|-----------------------------| 
B|-----------------------------| 
G|-----------------------------|  
D|-2--2-2-2--2-2-2--2--2--2----| 
A|-----------------------------| 
E|-----------------------------| 



Bridge: 


  0:48 

e|-------------x-------------x-----------x-----------| 
B|-------------x-------------x-----------x-----------| 
G|-------------x-------------x-----------x-----------| 
D|---------------------------------------------------| 
A|---------------------------------------------------| 
E|----0-3-4-5-----0-5-6-7-0-----3-3-4-5-----5-6-7-0--| 



Solo 1: 


  0:55 

e|----------------------------------------------------------------------| 
B|-10b12-10b12-10b12r10-8-10-10b12-8h10-8h10-8-10b12-10b12-10b12r10-----| 
G|------------------------------------------------------------------9\0-|  
D|----------------------------------------------------------------------| 
A|----------------------------------------------------------------------| 
E|----------------------------------------------------------------------| 


  0:59 

e|-----------x---------------x-| 
B|-----------x---------------x-| 
G|-----------x---------------x-| 
D|-----------------------------| 
A|-----------------------------| 
E|--0-3-4-5-----0-0-5-6-7-0----| 


  1:03 

e|----------------10-12-14-12-10----------------------| 
B|-10b12--10pb--8----------------10b12-10-8h10p8------| 
G|-----------------------------------------------9\0--|  
D|----------------------------------------------------| 
A|----------------------------------------------------| 
E|----------------------------------------------------| 


  1:06 

e|-----------x---------------x-| 
B|-----------x---------------x-| 
G|-----------x---------------x-| 
D|-----------------------------| 
A|-----------------------------| 
E|--0-3-4-5-----0-0-5-6-7-0----| 


  1:10 

e|-----------------------------------------------------------------| 
B|---------------------------10b12-10-8-10-10pb-8------------------| 
G|------------------------------------------------9-7--------------|  
D|-7h9-7h9-7---7-5-7-7v-7v----------------------------9\7-5-7-5\0--| 
A|-----------------------------------------------------------------| 
E|-----------------------------------------------------------------| 


  1:17 

e|-----------------------------------------------------------------| 
B|-----------------------------------------------------------------| 
G|-----------------------------------------------------------------|  
D|-5h7--7-7-5-7-7v---5-7-7-7-7-5-7\0---7b9-7b9r7-5-----------------| 
A|-------------------------------------------------7-5-------------| 
E|-----------------------------------------------------7-5-7-3b-0--| 


  1:25 

e|-x------------------x--------------x--------------x--------------| 
B|-x------------------x--------------x--------------x--------------| 
G|-x------------------x--------------x--------------x--------------| 
D|-----------------------------------------------------------------| 
A|-----------------------------------------------------------------| 
E|---0-0-0-0-0-3-4-5----0-0-5-6-7-0----0-0-0-3-4-5----0-0-5-6-7-7--| 



Repeat Verse: 


  1:32 




  1:52 
       "...too young to vote" 
e|-------------------------------| 
B|-------------------------------| 
G|-------------------------------|  
D|-5b7-7-5--5b7-7-5--5b7-7-5-----| 
A|---------------------------7\0-| 
E|-------------------------------| 


  1:58 
  "...ain't no....." 
e|------------------------------------------| 
B|------------------------------------------| 
G|------------------------------------------|  
D|-5b7-7-5--5b7-7-5--5b7-7-5----------------| 
A|---------------------------7-5------------| 
E|-------------------------------7-5-7-3b-0-| 



Bridge: 


  2:02 

e|-x-------------x---------------x---------------x-----------------| 
B|-x-------------x---------------x---------------x-----------------| 
G|-x-------------x---------------x---------------x-----------------| 
D|-----------------------------------------------------------------| 
A|-----------------------------------------------------------------| 
E|----0-0-3-4-5-----0-0-5-6-7-0-----0-0-0-3-4-5-----0-5-6-7-0------| 


  2:12 

e|-x--------------x---------------x---------------x-----------------| 
B|-x--------------x---------------x---------------x-----------------| 
G|-x--------------x---------------x---------------x-----------------| 
D|------------------------------------------------------------------| 
A|------------------------------------------------------------------| 
E|---0-0-0-3-4-5-----0-0-5-6-7-0-----0-0-0-3-4-5-----0-5-6-7-7--0---| 




Solo 3: 

   
  2:17 

e|-----------------------------------------------------------------| 
B|-10b12-10-8-10b12r10b12r10-8-------------------------------------| 
G|-----------------------------9\0---------------------------------|  
D|-----------------------------------5-7-5-7b9r7-5-----------------| 
A|-------------------------------------------------7\0-------------| 
E|-----------------------------------------------------------------| 


   

e|-----------x---------------x-| 
B|-----------x---------------x-| 
G|-----------x---------------x-| 
D|-----------------------------| 
A|-----------------------------| 
E|--0-3-4-5-----0-0-5-6-7-0----| 



 Outro: 

  


e|---x-------------| 
B|---x-------------| 
G|---x-------------| 
D|---------------x-| 
A|---------------x-| 
E|-0---0-0-0-0-0-x-| 
		  

auto scroll beats size up size down change color hide chords drawings
tab show chords e-chords YouTube Clip e-chords hide all tabs e-chords go to top tab

share