The Birthday Massacre

Destroyer

The Birthday Massacre

tabs

by  JOAOEWERTON

save to print version add songbook text version e-mail correct tuner
chordsukulelecavacokeyboardtabbassdrumsharmonicaflute Guitar Pro
close

there isn't a video lesson for this song

chords

Destroyer

	  		


Keys transcribed to guitar 
e|------------------------------------------------| 
B|-12--11-----------------------------------------| 
G|---------------------------12--11------8--7-----| 
D|--------------10--12----------------------------| 
A|------------------------------------------------| 
D|------------------------------------------------| 


Pre-Chorus 
Guitar doesn't come in until 0:45 
e|-------------------------------------------------------| 
B|-------------------------------------------------------| 
G|-------------------------------------------------------| 
D|-------------------------------------------------------| 
A|-8------5--------x-----------8-------5----x------------| 
D|-8------5--------x-----------8-------5----x------------| 


Chorus 
e|-------------------------------------------| 
B|-------------------------------------------| 
G|-------------------------------------------| 
D|-------------------------------------------| 
A|-0-x16--5-x8--3--x8---0-x16--8-x8--3-x8----| 
D|-0------5-----3-------0------8-----3-------| 

e|-------------------------------------------| 
B|-------------------------------------------| 
G|-------------------------------------------| 
D|-------------------------------------------| 
A|-0-x16--5-x8--3--x8---0-x16--8-x8--10-x4---| 
D|-0------5-----3-------0------8-----10------| 


verse 2 
Riff 1 x6 
e|------------------------------------------------------| 
B|------------------------------------------------------| 
G|------------------------------------------------------| 
D|------------------------------------------------------| 
A|--0--0--0--0--0--0--0--0--0--0--0--0--0--0--0--0-0----| 
D|--0--0--0--0--0--0--0--0--0--0--0--0--0--0--0--0-0----| 
PM_______________________________________________________ 


e|-------------------------------------------------------| 
B|-------------------------------------------------------| 
G|-------------------------------------------------------| 
D|-------------------------------------------------------| 
A|-8---5---0-0-0-0-0-0-0-00-0-0-0-0-0-0-0-0-8---5---x----| 
D|-8---5---0-0-0-0-0-0-0-00-0-0-0-0-0-0-0-0-8---5---x----| 
PM         ________________________________ 


Chorus 


BRIDGE 
e|-----------------------------------------------------------------| 
B|-----------------------------------------------------------------| 
G|-----------------------------------------------------------------| 
D|-12~------------------------12~----------------------------------| 
A|-----------------------------------------------------------------| 
D|-----------------------------------------------------------------| 


SOLO 
(+1, whole step bend SLOW, release near the end) 
e|---------------------------------------------------------------------------| 
B|----+1------------------+1-------------------------------------------------| 
G|-12b------------r----12b-----------------r------------10---12~-----9-10-9--| 
D|--------------------------------------------10---12~-----------------------| 
A|---------------------------------------------------------------------------| 
D|---------------------------------------------------------------------------| 

e|---------------------------------------------------------------------------| 
B|---------------------------------------------------------------------------| 
G|-------------+1----------------+1-------------+1---------------------------| 
D|-12--12-----b---------r-----12b----r-------12b-----r-----------------------| 
A|-------------------------------------12~-------------12~-------------------| 
D|---------------------------------------------------------------------------| 


Chorus 

OUTRO 
B|------------------------------------------------------| 
G|------------------------------------------------------| 
D|------------------------------------------------------| 
A|--0--0--0--0--0--0--0--0--0--0--0--0--0--0--0--0-0----| 
D|--0--0--0--0--0--0--0--0--0--0--0--0--0--0--0--0-0----| 
PM_______________________________________________________ 

B|------------------------------------------------------| 
G|------------------------------------------------------| 
D|------------------------------------------------------| 
A|--0--0--0--0--0--0--0--0--0--0--0--0--0--0--0--0------| 
D|--0--0--0--0--0--0--0--0--0--0--0--0--0--0--0--0------| 
PM_______________________________________________________ 



Thanks for looking :) 
More from this new album to come 
Perhaps even a GP of this song 


************************************ 

| /   slide up 
| \   slide down 
| h   hammer-on 
| p   pull-off 
| ~   vibrato 
| +   harmonic 
| x   Mute note 
| b   Bend 
| pb  Pre-bend 
| br  Bend release 
| pbr Pre-bend release 
| brb Bend release bend 

************************************ 
		  

See also:

tabs Sum 41 - Moron tabs Sum 41 - Mr.Amsterdam tabs Sum 41 - Hyper-Insomnia-para-Condroid tabs The Weeknd - What You Need tabs Black Pistol Fire - Suffocation Blues tabs Sum 41 - Machine Gun
e-chords

Other versions:

tabs The Birthday Massacre - Destroyer tabs Amon Amarth - Destroyer Of The Universe
auto scroll beats size up size down change color hide chords drawings
tab show chords e-chords YouTube Clip e-chords hide all tabs e-chords go to top tab

share with facebook