The Bennies

Heavy Disco

The Bennies

tabs

by  EDSOOLIVEIRA

save to print version add songbook text version e-mail correct tuner
chordsukulelecavacokeyboardtabbassdrumsharmonicaflute Guitar Pro
close

there isn't a video lesson for this song

chords

Heavy Disco

	  		

Tuning: Standard EADGBe 

Intro/Main Riff 
e|---------------------------------------------------------------------------| 
B|---------------------------------------------------------------------------| 
G|---------7-7---------------------------------7-7-----7-7-9-9-9-9-9-9-------| 
D|-----9-9-----9-9-7-7-------7-7-----------9-9-----9-9-----------------------| 
A|-7-7-----------------10-10-----10-10-7-7-----------------------------------| 
E|---------------------------------------------------------------------------| 

e|---------------------------------------------------------------------------| 
B|---------------------------------------------------------------------------| 
G|---------7-7---------------------------------7-7---7-9-9-9-9-9-9-9-9-------| 
D|-----9-9-----9-9-7-7-------7-7-----------9-9-----9-------------------------| 
A|-7-7-----------------10-10-----10-10-7-7-----------------------------------| 
E|---------------------------------------------------------------------------| 

Chorus 
e|---------------------------------------------------------------------------| 
B|---------------------------------------------------------------------------| 
G|-9-9-9-9-9-9-9-9-------------------------9-9-9-9-9-9-9-9-------------------| 
D|-9-9-9-9-9-9-9-9-12-12-12-12-12-12-12-12-9-9-9-9-9-9-9-9-12-12-12-12-12-12-| 
A|-7-7-7-7-7-7-7-7-12-12-12-12-12-12-12-12-7-7-7-7-7-7-7-7-12-12-12-12-12-12-| 
E|-0-0-0-0-0-0-0-0-10-10-10-10-10-10-10-10-0-0-0-0-0-0-0-0-10-10-10-10-10-10-| 

e|------------------------------------------------------------------------------| 
B|------------------------------------------------------------------------------| 
G|------------------------------------------------------------------------------| 
D|-12-12-10-10-10-10-10-10-10-10-12-12-12-12-12-12-12-12-10-10-10-10-10-10-10-10| 
A|-12-12-10-10-10-10-10-10-10-10-12-12-12-12-12-12-12-12-10-10-10-10-10-10-10-10| 
E|-10-10-8--8--8--8--8--8--8--8--10-10-10-10-10-10-10-10-8--8--8--8--8--8--8--8-| 

e|---------------------------------------------------------------------------| 
B|---------------------------------------------------------------------------| 
G|---------------------------------------------------------------------------| 
D|-12-12-12-12-12-12-12-12---------------------------------------------------| 
A|-12-12-12-12-12-12-12-12---------------------------------------------------| 
E|-10-10-10-10-10-10-10-10---------------------------------------------------|  

Verse (In the second part of verse 1, you play these same chords, but to a ska beat) 
e|---------------------------------------------------------------------------| 
B|---------------------------------------------------------------------------| 
G|-9-9-9----------9-9-9------------------------------------------------------| 
D|-9-9-9----------9-9-9----------9-9-9-----10-10-10-----9-9-9-----12-12-12---| 
A|-7-7-7----------7-7-7----------9-9-9-----10-10-10-----9-9-9-----12-12-12---| 
E|-0-0-0----------0-0-0----------7-7-7-----8--8--8------7-7-7-----10-10-10---|  

Chorus 
e|---------------------------------------------------------------------------| 
B|---------------------------------------------------------------------------| 
G|-9-9-9-9-9-9-9-9-------------------------9-9-9-9-9-9-9-9-------------------| 
D|-9-9-9-9-9-9-9-9-12-12-12-12-12-12-12-12-9-9-9-9-9-9-9-9-12-12-12-12-12-12-| 
A|-7-7-7-7-7-7-7-7-12-12-12-12-12-12-12-12-7-7-7-7-7-7-7-7-12-12-12-12-12-12-| 
E|-0-0-0-0-0-0-0-0-10-10-10-10-10-10-10-10-0-0-0-0-0-0-0-0-10-10-10-10-10-10-| 

e|------------------------------------------------------------------------------| 
B|------------------------------------------------------------------------------| 
G|------------------------------------------------------------------------------| 
D|-12-12-10-10-10-10-10-10-10-10-12-12-12-12-12-12-12-12-10-10-10-10-10-10-10-10| 
A|-12-12-10-10-10-10-10-10-10-10-12-12-12-12-12-12-12-12-10-10-10-10-10-10-10-10| 
E|-10-10-8--8--8--8--8--8--8--8--10-10-10-10-10-10-10-10-8--8--8--8--8--8--8--8-| 

e|---------------------------------------------------------------------------| 
B|---------------------------------------------------------------------------| 
G|---------------------------------------------------------------------------| 
D|-12-12-12-12-12-12-12-12---------------------------------------------------| 
A|-12-12-12-12-12-12-12-12---------------------------------------------------| 
E|-10-10-10-10-10-10-10-10---------------------------------------------------|  

Verse  
e|---------------------------------------------------------------------------| 
B|---------------------------------------------------------------------------| 
G|-9-9-9----------9-9-9------------------------------------------------------| 
D|-9-9-9----------9-9-9----------9-9-9-----10-10-10-----9-9-9-----12-12-12---| 
A|-7-7-7----------7-7-7----------9-9-9-----10-10-10-----9-9-9-----12-12-12---| 
E|-0-0-0----------0-0-0----------7-7-7-----8--8--8------7-7-7-----10-10-10---|  

Intro/Main Riff 
e|---------------------------------------------------------------------------| 
B|---------------------------------------------------------------------------| 
G|---------7-7---------------------------------7-7-----7-7-9-9-9-9-9-9-------| 
D|-----9-9-----9-9-7-7-------7-7-----------9-9-----9-9-----------------------| 
A|-7-7-----------------10-10-----10-10-7-7-----------------------------------| 
E|---------------------------------------------------------------------------| 

e|---------------------------------------------------------------------------| 
B|---------------------------------------------------------------------------| 
G|---------7-7---------------------------------7-7---7-9-9-9-9-9-9-9-9-------| 
D|-----9-9-----9-9-7-7-------7-7-----------9-9-----9-------------------------| 
A|-7-7-----------------10-10-----10-10-7-7-----------------------------------| 
E|---------------------------------------------------------------------------| 

Chorus 
e|---------------------------------------------------------------------------| 
B|---------------------------------------------------------------------------| 
G|-9-9-9-9-9-9-9-9-------------------------9-9-9-9-9-9-9-9-------------------| 
D|-9-9-9-9-9-9-9-9-12-12-12-12-12-12-12-12-9-9-9-9-9-9-9-9-12-12-12-12-12-12-| 
A|-7-7-7-7-7-7-7-7-12-12-12-12-12-12-12-12-7-7-7-7-7-7-7-7-12-12-12-12-12-12-| 
E|-0-0-0-0-0-0-0-0-10-10-10-10-10-10-10-10-0-0-0-0-0-0-0-0-10-10-10-10-10-10-| 

e|------------------------------------------------------------------------------| 
B|------------------------------------------------------------------------------| 
G|------------------------------------------------------------------------------| 
D|-12-12-10-10-10-10-10-10-10-10-12-12-12-12-12-12-12-12-10-10-10-10-10-10-10-10| 
A|-12-12-10-10-10-10-10-10-10-10-12-12-12-12-12-12-12-12-10-10-10-10-10-10-10-10| 
E|-10-10-8--8--8--8--8--8--8--8--10-10-10-10-10-10-10-10-8--8--8--8--8--8--8--8-| 

e|---------------------------------------------------------------------------| 
B|---------------------------------------------------------------------------| 
G|---------------------------------------------------------------------------| 
D|-12-12-12-12-12-12-12-12---------------------------------------------------| 
A|-12-12-12-12-12-12-12-12---------------------------------------------------| 
E|-10-10-10-10-10-10-10-10---------------------------------------------------|  

Thanks guys, and don't forget to buy their EP digitally or on CD! It's pretty damn sick! Anyway,  
Enjoy the tab! 
		  

auto scroll beats size up size down change color hide chords drawings
tab show chords e-chords YouTube Clip e-chords hide all tabs e-chords go to top tab

share