The Amity Affliction

Open Letter

The Amity Affliction

tabs Expert expert

by  VSWORLD

save to print version add songbook text version e-mail correct tuner
chordsukulelecavacokeyboardtabbassdrumsharmonicaflute Guitar Pro
close

there isn't a video lesson for this song

chords

Open Letter

	  		

Intro Riff 
 00:13                                                                     X4 
D|---------------------------------------------------------------------------| 
A|---------------------------------------------------------------------------| 
F|---------------------------------------------------------------------------| 
C|---------------------------------------------------------------------------| 
G|---------------------------------------------------------------------------| 
C|-000000000-00-00-00-0-00000000--8888888-5555555----------------------------| 
PM.............................. 


Verse 
 00:41 
D|---------------------------------------------------------------------------| 
A|---------------------------------------------------------------------------| 
F|---------------------------------------------------------------------------| 
C|---------------------------------------------------------------------------| 
G|-00000000000--888888888888--555555555555--333333333333---------------------| 
C|-00000000000--888888888888--555555555555--333333333333---------------------| 

Verse (pt2) 
 00:54                                                                      X2 
D|---------------------------------------------------------------------------| 
A|---------------------------------------------------------------------------| 
F|---------------------------------------------------------------------------| 
C|---------------------------------------------------------------------------| 
G|-5555-------5555-------0000-------3333-------------------------------------| 
C|-5555-55555-5555-55555-0000-00000-3333-33333-------------------------------| 
        PM...      PM...      PM...      PM... 

Chorus 
 01:07                                                                      x4 
D|---------------------------------------------------------------------------| 
A|---------------------------------------------------------------------------| 
F|---------------------------------------------------------------------------| 
C|---------------------------------------------------------------------------| 
G|-8-8-8-8-8-8-8-8---0-0-0-0-0-0-0---10-10-10-10-10-10-10-10-----------------| 
C|-8-8-8-8-8-8-8-8---0-0-0-0-0-0-0---10-10-10-10-10-10-10-10-----------------| 

After Chorus Fill 
 01:34 
D|---------------------------------------------------------------------------| 
A|---------------------------------------------------------------------------| 
F|---------------------------------------------------------------------------| 
C|-15-15-15-15-15----------------------15-15-15-15-15------------------------| 
G|-12-12-12-12-12----------------------12-12-12-12-12------------------------| 
C|-12-12-12-12-12-12-12-12-12-12-12-12-12-12-12-12-12-12-12-12-12-12-12-12---| 
                  PM..................                PM.................. 

Verse 2 
 01:37 
D|---------------------------------------------------------------------------| 
A|---------------------------------------------------------------------------| 
F|---------------------------------------------------------------------------| 
C|---------------------------------------------------------------------------| 
G|-888888888888-000000000000-333333333333-10-10-10-10-10-10-10-10-10-10-10-10| 
C|-888888888888-000000000000-333333333333-10-10-10-10-10-10-10-10-10-10-10-10| 

Verse 2 (pt2) 
 01:50 
D|----------------------------------------------------------------------------| 
A|----------------------------------------------------------------------------| 
F|----------------------------------------------------------------------------| 
C|----------------------------------------------------------------------------| 
G|-8888-------8888------0000------0000------3333------3333------10-10-10-10-10| 
C|-8888-88888-8888-8888-0000-0000-0000-0000-3333-3333-3333-3333-10-10-10-10-10| 

Chorus 
 02:04                                                                      x4 
D|---------------------------------------------------------------------------| 
A|---------------------------------------------------------------------------| 
F|---------------------------------------------------------------------------| 
C|---------------------------------------------------------------------------| 
G|-8-8-8-8-8-8-8-8---0-0-0-0-0-0-0---10-10-10-10-10-10-10-10-----------------| 
C|-8-8-8-8-8-8-8-8---0-0-0-0-0-0-0---10-10-10-10-10-10-10-10-----------------| 


Intro Riff 
 02:30                                                                      X4 
D|---------------------------------------------------------------------------| 
A|---------------------------------------------------------------------------| 
F|---------------------------------------------------------------------------| 
C|---------------------------------------------------------------------------| 
G|---------------------------------------------------------------------------| 
C|-000000000-00-00-00-0-00000000--8888888-5555555----------------------------| 
PM.............................. 

Pre-chorus Fill 
 03:10                                                                      x2 
D|---------------------------------------------------------------------------| 
A|---------------------------------------------------------------------------| 
F|---------------------------------------------------------------------------| 
C|-8------0-----10-----------------------------------------------------------| 
G|-8------0-----10-----------------------------------------------------------| 
C|-8------0-----10-----------------------------------------------------------| 

Chorus 
 03:27                                                                      x4 
D|---------------------------------------------------------------------------| 
A|---------------------------------------------------------------------------| 
F|---------------------------------------------------------------------------| 
C|---------------------------------------------------------------------------| 
G|-8-8-8-8-8-8-8-8---0-0-0-0-0-0-0---10-10-10-10-10-10-10-10-----------------| 
C|-8-8-8-8-8-8-8-8---0-0-0-0-0-0-0---10-10-10-10-10-10-10-10-----------------| 


 
		  

See also:

tabs INXS - Heaven Sent tabs The Beautiful Girls - Freedom (part 2) tabs Joss Stone - Fell in love with a boy tabs You Am I - Please don`t ask me to smile tabs The Angels - Am I Ever Gonna See Your Face Again tabs Behind Crimson Eyes - This Is The End
e-chords

Other versions:

tabs The Amity Affliction - Open Letter
auto scroll beats size up size down change color hide chords drawings
tab show chords e-chords YouTube Clip e-chords hide all tabs e-chords go to top tab

share