The Amity Affliction

Hmas Lookback

The Amity Affliction

tabs

by  UBIRBOMFIM

save to print version add songbook text version e-mail correct tuner
chordsukulelecavacokeyboardtabbassdrumsharmonicaflute Guitar Pro
close

there isn't a video lesson for this song

chords

Hmas Lookback

	  		Intro 

C#|------------------------------------------------------------------| 
F#|--18----15--------18----15--------18----15--------18----20----22--| 
B |------------17--------------17--------------17--------------------| 
E |------------------------------------------------------------------| 
G#|------------------------------------------------------------------| 
C#|------------------------------------------------------------------| 

Verse 

C#|--------------------------------------------------------------------------| 
F#|--------------------------------------------------------------------------| 
B |--1515151515151515\1414141414141414/1515151515151515\1414141414141515-----| 
E |--------------------------------------------------------------------------| 
G#|--1313131313131313\1212121212121212/1313131313131313\1212121212121313-----| 
C#|--------------------------------------------------------------------------| 
I've been staring for weeks 

C#|------------------------------------------------------------------| 
F#|--------------18181818181818181818151515151515--------------------| 
B |--151515151515--------------------------------1717171717171717----| 
E |------------------------------------------------------------------| 
G#|------------------------------------------------------------------| 
C#|------------------------------------------------------------------| 
And the broken down pillars 

C#|--------------------------------------------------------------------------| 
F#|--------------------------------------------------------------------------| 
B |--1515151515151515\1414141414141414/1515151515151515\1414141414141515-----| 
E |--------------------------------------------------------------------------| 
G#|--1313131313131313\1212121212121212/1313131313131313\1212121212121313-----| 
C#|--------------------------------------------------------------------------| 
At the cold depths of rivers 

C#|------------------------------------------------------------------| 
F#|--------------18181818181818181818--------------------------------| 
B |--151515151515--------------------1515151515151717171717171717----| 
E |------------------------------------------------------------------| 
G#|------------------------------------------------------------------| 
C#|------------------------------------------------------------------| 
I've been star gazing and 

C#|------------------------------------------------------------------| 
F#|------------------------------------------------------------------| 
B |--7-------------------------------3--3-3-3-3-3---5--5-5-5-5-------| 
E |--5----3p0h3p0--3-5p3h5--3p0h3h5--1--1-1-1-1-1---3--3-3-3-3-------| 
G#|--5-------------------------------1--1-1-1-1-1---3--3-3-3-3-------| 
C#|--5-------------------------------1--1-1-1-1-1---3--3-3-3-3-------| 
whispering to myself in the night 

C#|----------------------------------------------------------------| 
F#|--------1414141515151515151515------14141415151515151515151515--| 
B |--121212----------------------121212----------------------------| 
E |----------------------------------------------------------------| 
G#|----------------------------------------------------------------| 
C#|----------------------------------------------------------------| 
i've been watching the tides 

C#|---------------------------------------------------------------| 
F#|--121212141414121212121212121/1414141414141414/16161616161616\-| 
B |---------------------------------------------------------------| 
E |---------------------------------------------------------------| 
G#|---------------------------------------------------------------| 
C#|---------------------------------------------------------------| 
and its a humbling experience 

Chorus 

1st Guitar 
C#|-------------------------------------------------------------------| x4 
F#|-------------------------------------------------------------------| 
B |--3-3-3-3-3-3-3-3-7-7-7-7-7-7-7-7-5-5-5-5-5-5-5-5-5-5-5-5-5-5-5-5--| 
E |--1-1-1-1-1-1-1-1-5-5-5-5-5-5-5-5-3-3-3-3-3-3-3-3-3-3-3-3-3-3-3-3--| 
G#|--1-1-1-1-1-1-1-1-5-5-5-5-5-5-5-5-3-3-3-3-3-3-3-3-3-3-3-3-3-3-3-3--| 
C#|--1-1-1-1-1-1-1-1-5-5-5-5-5-5-5-5-3-3-3-3-3-3-3-3-3-3-3-3-3-3-3-3--| 
Down 

2nd Guitar (After 2x 1st Guitar) 
C#|-------------------------------------------------------------------| 
F#|--15151513131311111515151313131111---------------------------------| 
B |----------------------------------12121214141415151212121414141515-| 
E |-------------------------------------------------------------------| 
G#|-------------------------------------------------------------------| 
C#|-------------------------------------------------------------------| 
Where we reach out to forever 

C#|-------------------------------------------------------------------| 
F#|--1515151313131111151515131313111113151515151515151717171717171717-| 
B |-------------------------------------------------------------------| 
E |-------------------------------------------------------------------| 
G#|-------------------------------------------------------------------| 
C#|-------------------------------------------------------------------| 
Where the tides ebb and flow 

1st Guitar 
C#|-------------------------------------------------------------------| 
F#|-------------------------------------------------------------------| 
B |--7------------------------------------------------------------\0--| 
E |--5------------------------------------------------------------\0--| 
G#|--5------------------------------------------------------------\0--| 
C#|--5------------------------------------------------------------\0--| 

2nd Guitar 
C#|-------------------------------------------------------------------| 
F#|-17b-----------------------------------------------------------\0--| 
B |-------------------------------------------------------------------| 
E |-------------------------------------------------------------------| 
G#|-------------------------------------------------------------------| 
C#|-------------------------------------------------------------------| 

Verse 

C#|--------------------------------------------------------------------------| 
F#|--------------------------------------------------------------------------| 
B |--1515151515151515\1414141414141414/1515151515151515\1414141414141515-----| 
E |--------------------------------------------------------------------------| 
G#|--1313131313131313\1212121212121212/1313131313131313\1212121212121313-----| 
C#|--------------------------------------------------------------------------| 
They leave in short breaths 

C#|------------------------------------------------------------------| 
F#|--------------18181818181818181818151515151515--------------------| 
B |--151515151515--------------------------------1717171717171717----| 
E |------------------------------------------------------------------| 
G#|------------------------------------------------------------------| 
C#|------------------------------------------------------------------| 
And to hold and to steal 

C#|--------------------------------------------------------------------------| 
F#|--------------------------------------------------------------------------| 
B |--1515151515151515\1414141414141414/1515151515151515\1414141414141515-----| 
E |--------------------------------------------------------------------------| 
G#|--1313131313131313\1212121212121212/1313131313131313\1212121212121313-----| 
C#|--------------------------------------------------------------------------| 
And its calming and it heals 

C#|------------------------------------------------------------------| 
F#|--------------18181818181818181818--------------------------------| 
B |--151515151515--------------------1515151515151717171717171717----| 
E |------------------------------------------------------------------| 
G#|------------------------------------------------------------------| 
C#|------------------------------------------------------------------| 
To leave my past behind 

C#|-------------------------------------------------------------------| 
F#|-------------------------------------------------------------------| 
B |--7------------------------------------------------------------\0--| 
E |--5------------------------------------------------------------\0--| 
G#|--5------------------------------------------------------------\0--| 
C#|--5------------------------------------------------------------\0--| 

2nd Guitar 
C#|-------------------------------------------------------------------| 
F#|-17v-----------------------------------------------------------\0--| 
B |-------------------------------------------------------------------| 
E |-------------------------------------------------------------------| 
G#|-------------------------------------------------------------------| 
C#|-------------------------------------------------------------------| 

Chorus 

1st Guitar 
C#|-------------------------------------------------------------------| x4 
F#|-------------------------------------------------------------------| 
B |--3-3-3-3-3-3-3-3-7-7-7-7-7-7-7-7-5-5-5-5-5-5-5-5-5-5-5-5-5-5-5-5--| 
E |--1-1-1-1-1-1-1-1-5-5-5-5-5-5-5-5-3-3-3-3-3-3-3-3-3-3-3-3-3-3-3-3--| 
G#|--1-1-1-1-1-1-1-1-5-5-5-5-5-5-5-5-3-3-3-3-3-3-3-3-3-3-3-3-3-3-3-3--| 
C#|--1-1-1-1-1-1-1-1-5-5-5-5-5-5-5-5-3-3-3-3-3-3-3-3-3-3-3-3-3-3-3-3--| 
Down 

2nd Guitar (After 2x 1st Guitar) 
C#|-------------------------------------------------------------------| 
F#|--15151513131311111515151313131111---------------------------------| 
B |----------------------------------12121214141415151212121414141515-| 
E |-------------------------------------------------------------------| 
G#|-------------------------------------------------------------------| 
C#|-------------------------------------------------------------------| 
Where we reach out to forever 

C#|-------------------------------------------------------------------| 
F#|--1515151313131111151515131313111113151515151515151717171717171717-| 
B |-------------------------------------------------------------------| 
E |-------------------------------------------------------------------| 
G#|-------------------------------------------------------------------| 
C#|-------------------------------------------------------------------| 
Where the tides ebb and flow 

C#|-------------------------------------------------------------------| 
F#|-------------------------------------------------------------------| 
B |--7--7--5-7----------7--7--5-7--3----------------------------------| 
E |--5--5--3-5----------5--5--3-5--1----------------------------------| 
G#|--5--5--3-5----------5--5--3-5--1----------------------------------| 
C#|--5--5--3-5--111111115--5--3-5--1--11-11-11------------------------| 

C#|-------------------------------------------------------------------| 
F#|-------------------------------------------------------------------| 
B |--7--7--7-7--7--7--7-7---------7--7--7-7--7--7--7-7----------------| 
E |--5--5--5-5--5--5--5-5---------5--5--5-5--5--5--5-5----------------| 
G#|--5--5--5-5--5--5--5-5---------5--5--5-5--5--5--5-5----------------| 
C#|--5--5--5-5--5--5--5-5-11-11-115--5--5-5--5--5--5-5-11-11-11-------| 
I'm lost in the moment 

C#|-------------------------------------------------------------------| 
F#|-------------------------------------------------------------------| 
B |--3--3--3-3--3--3--3-3---------5--5--5-5--5--5--5-5----------------| 
E |--1--1--1-1--1--1--1-1---------3--3--3-3--3--3--3-3----------------| 
G#|--1--1--1-1--1--1--1-1---------3--3--3-3--3--3--3-3----------------| 
C#|--1--1--1-1--1--1--1-1-11-11-113--3--3-3--3--3--3-3-11-11-11-------| 
Where i fall into the river 

C#|-------------------------------------------------------------------| 
F#|-------------------------------------------------------------------| 
B |--7--7--7-7--7--7--7-7---------7--7--7-7--7--7--7-7----------------| 
E |--5--5--5-5--5--5--5-5---------5--5--5-5--5--5--5-5----------------| 
G#|--5--5--5-5--5--5--5-5---------5--5--5-5--5--5--5-5----------------| 
C#|--5--5--5-5--5--5--5-5-11-11-115--5--5-5--5--5--5-5-11-11-11-------| 
I'm lost and i'm dreaming 

C#|-------------------------------------------------------------------| 
F#|-------------------------------------------------------------------| 
B |--3--3--3-3--3--3--3-3---------5--5--5-5--5--5--5-5----------------| 
E |--1--1--1-1--1--1--1-1---------3--3--3-3--3--3--3-3----------------| 
G#|--1--1--1-1--1--1--1-1---------3--3--3-3--3--3--3-3----------------| 
C#|--1--1--1-1--1--1--1-1-11-11-113--3--3-3--3--3--3-3-11-11-11-------| 
like this has waited 

Chorus 

1st Guitar 
C#|-------------------------------------------------------------------| x4 
F#|-------------------------------------------------------------------| 
B |--3-3-3-3-3-3-3-3-7-7-7-7-7-7-7-7-5-5-5-5-5-5-5-5-5-5-5-5-5-5-5-5--| 
E |--1-1-1-1-1-1-1-1-5-5-5-5-5-5-5-5-3-3-3-3-3-3-3-3-3-3-3-3-3-3-3-3--| 
G#|--1-1-1-1-1-1-1-1-5-5-5-5-5-5-5-5-3-3-3-3-3-3-3-3-3-3-3-3-3-3-3-3--| 
C#|--1-1-1-1-1-1-1-1-5-5-5-5-5-5-5-5-3-3-3-3-3-3-3-3-3-3-3-3-3-3-3-3--| 
Down 

2nd Guitar (After 2x 1st Guitar) 
C#|-------------------------------------------------------------------| 
F#|--15151513131311111515151313131111---------------------------------| 
B |----------------------------------12121214141415151212121414141515-| 
E |-------------------------------------------------------------------| 
G#|-------------------------------------------------------------------| 
C#|-------------------------------------------------------------------| 
Where we reach out to forever 

C#|-------------------------------------------------------------------| 
F#|--1515151313131111151515131313111113151515151515151717171717171717-| 
B |-------------------------------------------------------------------| 
E |-------------------------------------------------------------------| 
G#|-------------------------------------------------------------------| 
C#|-------------------------------------------------------------------| 
Where the tides ebb and flow 

1st Guitar 
C#|-------------------------------------------------------------------| 
F#|-------------------------------------------------------------------| 
B |--7----------------------------------------------------------------| 
E |--5----------------------------------------------------------------| 
G#|--5----------------------------------------------------------------| 
C#|--5----------------------------------------------------------------| 

2nd Guitar 
C#|-------------------------------------------------------------------| 
F#|-17b---------------------------------------------------------------| 
B |-------------------------------------------------------------------| 
E |-------------------------------------------------------------------| 
G#|-------------------------------------------------------------------| 
C#|-------------------------------------------------------------------| 
		  

See also:

tabs INXS - Heaven Sent tabs The Beautiful Girls - Freedom (part 2) tabs Joss Stone - Fell in love with a boy tabs You Am I - Please don`t ask me to smile tabs The Angels - Am I Ever Gonna See Your Face Again tabs Behind Crimson Eyes - This Is The End
e-chords

Other versions:

tabs The Amity Affliction - Hmas Lookback
auto scroll beats size up size down change color hide chords drawings
tab show chords e-chords YouTube Clip e-chords hide all tabs e-chords go to top tab

share