The Amity Affliction

Deaths Hand

The Amity Affliction

tabs Beginner beginner

by  PAULANTUNES

save to print version add songbook text version e-mail correct tuner
chordsukulelecavacokeyboardtabbassdrumsharmonicaflute Guitar Pro
close

there isn't a video lesson for this song

chords

Deaths Hand

	  		 

Tuning: Drop A# (A# F A# D# G C) 

Intro/Chorus Riff 
 ||------------------------------------------------| 
 ||--10------8-------------------------------------| 
 ||------10------9-9---10-7-----7---10--9---12-7---| 
 ||----12------10-----------------8-------10-------| (x2) 
 ||------------------------------------------------| 
 ||------------------------------------------------| 

Intro pt2/Chorus - Triplet triplets. 
 ||------------------------------------------------| 
 ||------------------------------------------------| 
 ||------------------------------------------------| 
 ||--000-------000------0h---000-------000---------| 
 ||--000-(x3)--000-(x3)-0h---000-(x2)--000-(x3)----| 
 ||--000-------000------0h---000-------000---------| 


Verse 
 ||--------------------------| 
 ||--------------------------| 
 ||--------10-10-------9-9---| 
 ||--0-0-0-------0-0-0-------|(x2) 
 ||--0-0-0-8--8--0-0-0-7-7---| 
 ||--0-0-0-------0-0-0-------| 
"Can't keep my heart from beating, can't keep my throat from screaming" 

 ||--------------------------|-------------------------| 
 ||--------------------------|-------------------------| 
 ||--------10-10-------9-9---|--------7-7--------9-9-9-| 
 ||--8-8-8-------8-8-8-------|--5-5-5------5-5-5-------| 
 ||--8-8-8-8--8--8-8-8-7-7---|--5-5-5-5-5--5-5-5-7-7-7-| 
 ||--8-8-8-------8-8-8-------|--5-5-5------5-5-5-------| 
"There has to be another way for me to keep on living" 

 ||----------------------------------------------| 
 ||----------------------------------------------| 
 ||----------------------------------------------| 
 ||--0-0-0----0-0-0-------0-0-0----0-0-0---------| 
 ||--0-0-0----0-0-0-------0-0-0----0-0-0---------| 
 ||--0-0-0----0-0-0-------0-0-0----0-0-0---------| 
"I held death's hand this evening, closed my eyes now I'm dreaming" 

 ||----------------------------------------------| 
 ||----------------------------------------------| 
 ||----------------------------------------------| 
 ||--8-8-8----8-8-8-------5-5-5----7-7-7---------| 
 ||--8-8-8----8-8-8-------5-5-5----7-7-7---------| 
 ||--8-8-8----8-8-8-------5-5-5----7-7-7---------| 
"I promise I won't leave here.." 


PreChorus 
 ||-------------------| 
 ||-------------------| 
 ||-------------------| 
 ||--8-------10-------|(x4) 
 ||--8-(x16)-10-(x16)-| 
 ||--8-------10-------| 
		  

Full key step upFull key step up
Half key step upHalf key step up
Half key step downHalf key step down
Full key step downFull key step down
hide glossary

See also:

tabs Hillsong Music Australia - Tel the world tabs Hillsong Music Australia - Every move I make tabs Hillsong Music Australia - Breathe on me tabs Hillsong Music Australia - Can't stop praising tabs The Butterfly Effect - Crave tabs Beaverloop - Condesending
e-chords

Other versions:

tabs The Amity Affliction - Deaths Hand
auto scroll beats size up size down change color hide chords drawings
tab show chords e-chords YouTube Clip e-chords hide all tabs e-chords go to top tab

share