The All American Rejects

home > The All American R...

Why Worry Tab

The All American Rejects

Difficulty: nolevelnolevel

tuner correct add songbook print version text version save to e-mail
chordsukulelecavacokeyboardtabbassdrumsharmonicsflute Guitar Pro
chords

Why Worry

  		 
               Tuned Down a Whole Step!!!!! 
 
                               Intro 
 
--------0---------0--------0---------0----------0 
--------0---------0--------0---------0----------0 
--------9---------9--------9---------9----------9 
--------9---------9--------9---------9----------9 
--------7---------7--------7---------7----------7 
-0-0---0--0-0---0--0-0---0--0-0---0--00-0-0-0 
 
---------0--------0---------0----------0 
---------0--------0---------0----------0 
---------9--------9---------9----------9 
---------9--------9---------9----------9 
---------7--------7---------7----------7 
--0-0---0--0-0---0--0-0---0--00-0-0-0 
 
I worry, I wonder all the time..... 
---------0--------0---------0----------0 
---------0--------0---------0----------0 
---------9--------9---------9----------9 
---------9--------9---------9----------9 
---------7--------7---------7----------6 
--0-0---0--0-0---0--0-0---0--00-0-0-0 
 
---------0--------0---------0----------0 
---------0--------0---------0----------0 
---------9--------9---------9----------6 
---------9--------9---------9----------6 
---------6--------6---------6----------4 
--0-0---0--0-0---0--0-0---0--00-0-0-0 
 
---------0---0--0-- 
---------0---0--0-- 
---------6---2--2--  Forget about it... 
---------6---2--2-- 
---------4---0--0-- 
--0-0---0---0--0-- 
  
                    VERSE 1 
                      Guitar 1 
---------------------------------------- 
---------------------------------------- 
-------9-9-9-8---9--11-11-11-11----- 
-------9-9-9-9---9---9--9--9--9------ x4 
----------------------------------------                            
(5th time do this) 
 ---------------------------------------------- 
 ---------------------------------------------- 
--9-9-9-8-8-8-8-8-9-9-9-11-11-11-11-11- 
--9-9-9-9-9-9-9-9-9-9-9--9--9--9--9---9-- 
---------------------------------------------- 
---------------------------------------------- 
 
               Angry and gone..... 
---------0-0----0-0----0-0----0-0------- 
---------0-0----0-0----0-0----0-0------- 
---------2-2----2-2----1-1----1-1------- x2 
---------2-2----2-2----2-2----2-2------- 
---------0-0----0-0----2-2----2-2------- 
---------0-0----0-0----0-0----0-0------- 
 
------ 
------ 
------ 
--4---x 30 
--2--- 
------ 
                                   By: Dave Hood   (FOR ALL MY ALVA PEOPLE WHO LOVE THAT COUNTRY!) 
 

	  

Search Paypal
auto scroll beats size up size down change color hide chords drawings
tab show chords e-chords YouTube Clip e-chords hide all tabs e-chords go to top tab