The Academy Is

Chop Chop

The Academy Is

tabs

by  P!ATD

save to print version add songbook text version e-mail correct tuner
chordsukulelecavacokeyboardtabbassdrumsharmonicaflute Guitar Pro
close

there isn't a video lesson for this song

chords

Chop Chop

	  		(Intro) 
E-------------------------------------------------------------------------| 
B-------------------------------------------------------------------------| 
G-------------------------------------------------------------------------| 
D-------------------------------------------------------------------------| 
A-777-7-9-10-99-7-101010-10-12-141414-14/777-7-9-10-99-7-101010-99-7------| 
E-------------------------------------------------------------------------| 

E-------------------------------------------------------------------------| 
B-------------------------------------------------------------------------| 
G-------------------------------------------------------------------------| 
D------------------------999-9-101010-10-131313-13-141414-14-141414-------| 
A-101010-10-12-141414-14--------------------------------------------------| 
E-------------------------------------------------------------------------| 

(Verse)*palm muted p.s. listen for exact amount its late and im tired so im not counting  
exactly 
E-------------------------------------------------------------------------| 
B-------------------------------------------------------------------------| 
G-9*-7*-9*-7*-9*-7*-9*-7*-(x8)---7*--7*--7*---7*---7*---7*--9*-7*-9*-78---| 
D------------------------------7*--7*--7*---9*---9*---9*------------------| 
A-------------------------------------------------------------------------| 
E-------------------------------------------------------------------------| 

E-------------------------------------------------------------------------| 
B-------------------------------------------------------------------------| 
G-5555555555555555-222222222222-------------------------------------------| 
D-5555555555555555-222222222222-------------------------------------------| 
A-3333333333333333-000000000000-------------------------------------------| 
E-------------------------------------------------------------------------| 

(Chorus) 
E-------------------------------------------------------------------------| 
B-------------------------------------------------------------------------| 
G-------------------1010-77-1010-77--1010-7-1010-77-----------------------| 
D-5555555555555555 -x-x--xx-x-x--xx--x-x--x-x-x--xx-----------------------| 
A-5555555555555555--8-8--55-8-8--55--8-8--5-8-8--55-----------------------| 
E-3333333333333333--------------------------------------------------------| 

E-------------------------------------------------------------------------| 
B-------------------------------------------------------------------------| 
G-------------------1010-77-1010-77--1010-7-1010-77-----------------------| 
D-5555555555555555 -x-x--xx-x-x--xx--x-x--x-x-x--xx-----------------------| 
A-5555555555555555--8-8--55-8-8--55--8-8--5-8-8--55-----------------------| 
E-3333333333333333--------------------------------------------------------| 

E-------------------------------------------------------------------------| 
B-------------------------------------------------------------------------| 
G-5555555555555555-222222222222-------------------------------------------| 
D-5555555555555555-222222222222-------------------------------------------| 
A-3333333333333333-000000000000-------------------------------------------| 
E-------------------------------------------------------------------------| 

Play Intro 

(Bridge) 
E-------------------------------------------------------------------------| 
B-------------------------------------------------------------------------| 
G---------------------------9---------------------------------------------| 
D---5-7-8-9-8-7-5---5-7-8-9---9-8-----------------------------------------| 
A-7---------------7-------------------------------------------------------| 
E-------------------------------------------------------------------------| 

(Outro) 
Chorus x 2 THEN 

E-------------------------------------------------------------------------| 
B-------------------------------------------------------------------------| 
G-------------------------------------------------------------------------| 
D-5555555555-4444444444444-2----------------------------------------------| 
A-5555555555-5555555555555-2----------------------------------------------| 
E-3333333333-2222222222222-0----------------------------------------------| 

now just go insane with an e scale 
		  

auto scroll beats size up size down change color hide chords drawings
tab show chords e-chords YouTube Clip e-chords hide all tabs e-chords go to top tab

share