The 1975

home > The 1975

People Tab

The 1975

Difficulty: nolevelnolevel

by jessgomes

tuner correct add songbook print version text version save to e-mail
chordsukulelecavacokeyboardtabbassdrumsharmonicsflute Guitar Pro
chords

People

  		verse 1 
e|----------------------------|----------------------------|-------------------| 
B|--8-8----------8-8----------|--8-8----------8-8----------|-------------------| 
G|------7-7----------7-7------|------7-7----------7-7------|--7-7-----7--7-----| 
D|----------6-6----------6-6--|----------6-6----------6-6--|-------6-----------| 
A|----------------------------|----------------------------|-------------------| 
E|----------------------------|----------------------------|-------------------| 

e|-----------------------------|----------------------------|-------------------| 
B|--8--8----------8-8----------|--8-8----------8-8----------|-------------------| 
G|-------7-7----------7-7------|------7-7----------7-7------|--7-7-----7--7-----| 
D|-----------6-6----------6-6--|----------6-6----------6-6--|-------6-----------| (x2) 
A|-----------------------------|----------------------------|-------------------| 
E|-----------------------------|----------------------------|-------------------| 


Pre-Chorus 1 
e|-----------------------------|---------------------|-------------------| 
B|--8--8----------8-8----------|---------------------|-------------------| 
G|-------7-7----------7-7------|--7-7----------------|-------------7--7--| 
D|-----------6-6----------6-6--|-------6-6--5-----3--|-------------------| 
A|-----------------------------|------------5-----3--|-------------------| 
E|-----------------------------|------------3-----1--|-------------------| 


Chorus 1 
e|---------------------|---------------------|---------------------|---------------------| 
B|---------------------|---------------------|---------------------|--------------5--5---| 
G|---------------------|---------------------|---------------------|--------------7--7b--| 
D|---------------------|---------------------|---------------------|---------------------| 
A|--2-2-2-2-2-2--------|--2-2-2-2-2-2--------|--2-2-2-2-2-2--------|--2-2-2-2-2-2--------| 
E|--0-0-0-0-0-0--------|--0-0-0-0-0-0--------|--0-0-0-0-0-0--------|--0-0-0-0-0-0--------| 

e|---------------------|---------------------|---------------------|---------------------| 
B|---------------------|---------------------|---------------------|---------------------| 
G|---------------------|---------------------|---------------------|---------------------| 
D|---------------------|---------------------|---------------------|---------------------| 
A|------2-2-2-2--------|--2-2-2-2-2-2--------|--2-2-2-2-2-2--------|--2-2-2-2-2-2--------| 
E|------0-0-0-0--------|--0-0-0-0-0-0--------|--0-0-0-0-0-0--------|--0-0-0-0-0-0--------| 

e|---------------------|---------------------|---------------------|---------------------| 
B|---------------------|---------------------|---------------------|--------------5--5---| 
G|---------------------|---------------------|---------------------|--------------7--7b--| 
D|---------------------|---------------------|---------------------|---------------------| 
A|--2-2-2-2-2-2--------|--2-2-2-2-2-2--------|--2-2-2-2-2-2--------|--2-2-2-2-2-2--------| 
E|--0-0-0-0-0-0--------|--0-0-0-0-0-0--------|--0-0-0-0-0-0--------|--0-0-0-0-0-0--------| 

e|---------------------|---------------------|---------------------|---------------------| 
B|---------------------|---------------------|---------------------|--------------5--5---| 
G|---------------------|---------------------|---------------------|--------------7--7b--| 
D|---------------------|---------------------|---------------------|---------------------| (x2) 
A|------2-2-2-2--------|--2-2-2-2-2-2--------|--2-2-2-2-2-2--------|--2-2-2-2-2-2--------| 
E|------0-0-0-0--------|--0-0-0-0-0-0--------|--0-0-0-0-0-0--------|--0-0-0-0-0-0--------| 

e|---------------------|---------------------|---------------------|---------------------| 
B|---------------------|---------------------|---------------------|---------------------| 
G|---------------------|---------------------|---------------------|---------------------| 
D|---------------------|---------------------|---------------------|---------------------| 
A|------2-2-2-2--------|--2-2-2-2-2-2--------|--2-2-2-2-2-2--------|--2-2-2-2-2-2--------| 
E|------0-0-0-0--------|--0-0-0-0-0-0--------|--0-0-0-0-0-0--------|--0-0-0-0-0-0--------| 


verse 2 
e|----------------------------|----------------------------|-------------------| 
B|--8-8----------8-8----------|--8-8----------8-8----------|-------------------| 
G|------7-7----------7-7------|------7-7----------7-7------|--7-7-----7--7-----| 
D|----------6-6----------6-6--|----------6-6----------6-6--|-------6-----------| 
A|----------------------------|----------------------------|-------------------| 
E|----------------------------|----------------------------|-------------------| 

e|-----------------------------|----------------------------|-------------------| 
B|--8--8----------8-8----------|--8-8----------8-8----------|-------------------| 
G|-------7-7----------7-7------|------7-7----------7-7------|--7-7-----7--7-----| 
D|-----------6-6----------6-6--|----------6-6----------6-6--|-------6-----------| (x2) 
A|-----------------------------|----------------------------|-------------------| 
E|-----------------------------|----------------------------|-------------------| 


Pre-Chorus 2 
e|-----------------------------|---------------------| 
B|--8--8----------8-8----------|---------------------| 
G|-------7-7----------7-7------|--7-7----------------| 
D|-----------6-6----------6-6--|-------6-6--5-----3--| 
A|-----------------------------|------------5-----3--| 
E|-----------------------------|------------3-----1--| 


Chorus 2 
e|---------------------|---------------------|---------------------|---------------------| 
B|---------------------|---------------------|---------------------|--------------5--5---| 
G|---------------------|---------------------|---------------------|--------------7--7b--| 
D|---------------------|---------------------|---------------------|---------------------| 
A|--2-2-2-2-2-2--------|--2-2-2-2-2-2--------|--2-2-2-2-2-2--------|--2-2-2-2-2-2--------| 
E|--0-0-0-0-0-0--------|--0-0-0-0-0-0--------|--0-0-0-0-0-0--------|--0-0-0-0-0-0--------| 

e|---------------------|---------------------|---------------------|---------------------| 
B|---------------------|---------------------|---------------------|---------------------| 
G|---------------------|---------------------|---------------------|---------------------| 
D|---------------------|---------------------|---------------------|---------------------| 
A|---------------------|---------------------|---------------------|---------------------| 
E|---------------------|---------------------|---------------------|---------------------| 

e|---------------------|---------------------|---------------------|---------------------| 
B|---------------------|---------------------|---------------------|--------------5--5---| 
G|---------------------|---------------------|---------------------|--------------7--7b--| 
D|---------------------|---------------------|---------------------|---------------------| 
A|---------------------|---------------------|---------------------|---------------------| 
E|---------------------|---------------------|---------------------|---------------------| 

e|---------------------|---------------------|---------------------|---------------------| 
B|---------------------|---------------------|---------------------|---------------------| 
G|---------------------|---------------------|---------------------|---------------------| 
D|---------------------|---------------------|---------------------|---------------------| 
A|---------------------|---------------------|---------------------|---------------------| 
E|---------------------|---------------------|---------------------|---------------------| 

e|---------------------|---------------------|---------------------|---------------------| 
B|---------------------|---------------------|---------------------|---------------------| 
G|---------------------|---------------------|---------------------|---------------------| 
D|---------------------|---------------------|---------------------|---------------------| 
A|---------------------|---------------------|---------------------|---------------------| 
E|---------------------|---------------------|---------------------|---------------------| 


Outro 
e|---------------------|---------------------|---------------------|---------------------| 
B|---------------------|---------------------|---------------------|--------------5--5---| 
G|---------------------|---------------------|---------------------|--------------7--7b--| 
D|---------------------|---------------------|---------------------|---------------------| 
A|--2-2-2-2-2-2--------|--2-2-2-2-2-2--------|--2-2-2-2-2-2--------|--2-2-2-2-2-2--------| 
E|--0-0-0-0-0-0--------|--0-0-0-0-0-0--------|--0-0-0-0-0-0--------|--0-0-0-0-0-0--------| 

e|---------------------|---------------------|---------------------|---------------------| 
B|---------------------|---------------------|---------------------|--------------5--5---| 
G|---------------------|---------------------|---------------------|--------------7--7b--| 
D|---------------------|---------------------|---------------------|---------------------| (x3) 
A|------2-2-2-2--------|--2-2-2-2-2-2--------|--2-2-2-2-2-2--------|--2-2-2-2-2-2--------| 
E|------0-0-0-0--------|--0-0-0-0-0-0--------|--0-0-0-0-0-0--------|--0-0-0-0-0-0--------| 


e|------------| 
B|------------| 
G|------------| 
D|--5------3--| 
A|--5------3--| 
E|--3------1--| 


************************************ 

| b   Bend 

************************************ 
	  

Search Paypal
auto scroll beats size up size down change color hide chords drawings
tab show chords e-chords YouTube Clip e-chords hide all tabs e-chords go to top tab