The 1975

home > The 1975

Ghosts Tab

The 1975

Difficulty: nolevelnolevel

by fernsantana

tuner correct add songbook print version text version save to e-mail
chordsukulelecavacokeyboardtabbassdrumsharmonicsflute Guitar Pro
chords

Ghosts

Key:  G More
Ghosts Key DD
Ghosts Key D#D#
Ghosts Key EE
Ghosts Key FF(one step down)
Ghosts Key F#F#(half step down)
Ghosts Key GG(original key)
Ghosts Key G#G#(half step up)
Ghosts Key AA(one step up)
Ghosts Key A#A#
Ghosts Key BB
Ghosts Key CC
Ghosts Key C#C#
  		
INTRO 

Not played on guitar, but arranged for guitar: 

e|---------------------------------------------------------------------------| 
B|---------------------------------------------------------------------------| 
G|---------------------------------------------------------------------------| 
D|-11-11--11--11-13----------11-11--11--11-13--------------------------------| 
A|------------------11-13---------------------11-13--------------------------| 
E|---------------------------------------------------------------------------| 

e|---------------------------------------------------------------------------| 
B|---------------------------------------------------------------------------| 
G|------------------11---------------------11--------------------------------| 
D|-11-11--11--11-13-------11-11--11--11-13-----------------------------------| 
A|---------------------------------------------------------------------------| 
E|---------------------------------------------------------------------------| 

VERSE 

Matty plays these chords: (F# F# B F#) 

e|-2----------2----------2----------2----------------------------------------| 
B|-2----------2----------4----------2----------------------------------------| 
G|-3----------3----------4----------3----------------------------------------| 
D|-4----------4----------4----------4----------------------------------------| 
A|-4----------4----------2----------4----------------------------------------| 
E|-2----------2----------x----------2----------------------------------------| 

At 'and I'm dreaming', Adam plays this and repeats until Pre-Chorus 

e|---------------------------------------------------------------------------| 
B|---------------------------------------------------------------------------| 
G|---------11-10-8----------------------11-10-8------------------------------| 
D|-----------------11-8-------------------------11-8-------------------------| 
A|-9-9-9-9--------------11------9-9-9-9--------------11----------------------| 
E|---------------------------------------------------------------------------| 

Pre-Chorus 

e|---------------------------------------------------------------------------| 
B|---------------------------------------------------------------------------| 
G|--------------------------------------------11-----------------------------| 
D|-11-11--11--11-13----------11-11--11--11-13--------------------------------| 
A|------------------11-13----------------------------------------------------| 
E|---------------------------------------------------------------------------| 

Chorus 

Adam repeats this riff throughout the Chorus: 

e|---------------------------------------------------------------------------| 
B|---------------------------------------------------------------------------| 
G|---------------------------------------------------------------------------| 
D|-4/11-11-11-11-11--11-11-11-11---------------------------------------------| 
A|---------------------------------------------------------------------------| 
E|---------------------------------------------------------------------------| 

verse 2 

Adam repeats his riff from verse 1 throughout verse 2: 

e|---------------------------------------------------------------------------| 
B|---------------------------------------------------------------------------| 
G|---------11-10-8----------------------11-10-8------------------------------| 
D|-----------------11-8-------------------------11-8-------------------------| 
A|-9-9-9-9--------------11------9-9-9-9--------------11----------------------| 
E|---------------------------------------------------------------------------| 

Matty plays his chords from verse 1 as normal until 'I, I'm, the Prince of 
the Tyne', at which point he strums the same chords in a continuous up and 
down fashion 

Chorus 

Same as Chorus 1, except Adam's riff ends as: 

e|---------------------------------------------------------------------------| 
B|---------------------------------------------------------------------------| 
G|---------------------------------------------------------------------------| 
D|-11-11-11-11-11--11-11-11-11/4/11------------------------------------------| 
A|---------------------------------------------------------------------------| 
E|---------------------------------------------------------------------------| 

Matty plays a final F# to lead into the Bridge: 

BRIDGE 

These chords are repeated: (Ebm Db B) 

e|-7----------4----------2---------------------------------------------------| 
B|-7----------6----------4---------------------------------------------------| 
G|-8----------6----------4---------------------------------------------------| 
D|-8----------6----------4---------------------------------------------------| 
A|-6----------4----------2---------------------------------------------------| 
E|-x----------x----------x---------------------------------------------------| 

Finishing with: (Ebm Db) 

e|-7----------4--------------------------------------------------------------| 
B|-7----------6--------------------------------------------------------------| 
G|-8----------6--------------------------------------------------------------| 
D|-8----------6--------------------------------------------------------------| 
A|-6----------4--------------------------------------------------------------| 
E|-x----------x--------------------------------------------------------------| 

The intro riff is also repeated during the Bridge: 

e|---------------------------------------------------------------------------| 
B|---------------------------------------------------------------------------| 
G|---------------------------------------------------------------------------| 
D|-11-11--11--11-13----------11-11--11--11-13--------------------------------| 
A|------------------11-13---------------------11-13--------------------------| 
E|---------------------------------------------------------------------------| 

e|---------------------------------------------------------------------------| 
B|---------------------------------------------------------------------------| 
G|------------------11---------------------11--------------------------------| 
D|-11-11--11--11-13-------11-11--11--11-13-----------------------------------| 
A|---------------------------------------------------------------------------| 
E|---------------------------------------------------------------------------| 

Chorus 

Adam repeats his Chorus riff until the song ends 

************************************ 

| /   slide up 
| \   slide down 
| h   hammer-on 
| p   pull-off 
| ~   vibrato 
| +   harmonic 
| x   Mute note 
| b   Bend 
| pb  Pre-bend 
| br  Bend release 
| pbr Pre-bend release 
| brb Bend release bend 

************************************ 
	  

Full key step upFull key step up
Half key step upHalf key step up
Half key step downHalf key step down
Full key step downFull key step down
Search Paypal
auto scroll beats size up size down change color hide chords drawings
tab show chords e-chords YouTube Clip e-chords hide all tabs e-chords go to top tab