Terri Clark

Poor, Poor Pitiful Me

Terri Clark

tabs

save to print version add songbook text version e-mail correct tuner
chordsukulelecavacokeyboardtabbassdrumsharmonicaflute Guitar Pro
close

there isn't a video lesson for this song

chords

Poor, Poor Pitiful Me

	  		E--|-------------------------------------------|-- 
A--|-------------------------------------------|-- 
B--|---------13b--13~~-----------------10------|-- 
G--|--13p11-----------13b--13rp11--13------11--|-- 
D--|-------------------------------------------|-- 
E--|-------------------------------------------|-- 
 
E--|-------------------------------------------------|-- 
A--|---------14--16b--16--14--14--18b--16b--16b--14~~|-- 
B--|--13h15------------------------------------------|-- 
G--|-------------------------------------------------|-- 
D--|-------------------------------------------------|-- 
E--|-------------------------------------------------|-- 
 
E--|--14--13--14--13h14/16--14--13--14--13--------------|-- 
A--|----------------------------------------14--13--14--|-- 
B--|----------------------------------------------------|-- 
G--|----------------------------------------------------|-- 
D--|----------------------------------------------------|-- 
E--|----------------------------------------------------|-- 
 
E--|------------------------------------------------|-- 
A--|-------14---------------------------------------|-- 
B--|--13b------13r--15--13--15--13------------------|-- 
G--|--------------------------------13h14r13~~------|-- 
D--|--------------------------------------------11--|-- 
E--|------------------------------------------------|-- 
		  

See also:

tabs Terri Clark - I Wanna Do It All tabs City And Colour - Fragile Bird tabs Neil Young - Old Man tabs Paul Brandt - Small Towns Big Dreams tabs City And Colour - Caseys Song tabs Neil Young - Rockin In The Free World (ver. 2)
e-chords

Other versions:

tabs Terri Clark - Poor, Poor Pitiful Me
auto scroll beats size up size down change color hide chords drawings
tab show chords e-chords YouTube Clip e-chords hide all tabs e-chords go to top tab

share