Terri Clark

Pain To Kill

Terri Clark

tabs

save to print version add songbook text version e-mail correct tuner
chordsukulelecavacokeyboardtabbassdrumsharmonicaflute Guitar Pro
close

there isn't a video lesson for this song

chords

Pain To Kill

	  		Tabbed by Guitarviper 
 
Intro: 
-------------------------------------------------------- 
-------------------------------------------------------- 
-------------------------------------------------------- 
--13-11-13-9----9-11---------------13-11-13-9----9-11\-- 
--11-11-11-9-11-9-11----9----9-11--11-11-11-9-11-9-11\-- 
-------------11------11---11------------------11-------- 
 
Violin part then 
---------------------- 
---------------------- 
---------------------- 
--13-11-13-9----9/11-- 
--11-11-11-9-11-9/11-- 
-------------11------- 
 
Solo:                              Pick while releasing bend 
--------------------------------------------|------------------------ 
--------------------------------------------|------------------------ 
--------------------9-----------------------|------------------------ 
--16b-14----14--12b---12p9--------------9-7-7br77777p5---7b-7p5---5-- 
---------17----------------12-10----12b----------------7--------7---- 
---------------------------------12---------------------------------- 
 
Outro: 
-------------------- 
-------------------- 
-------------------- 
-------------------- 
--11-9-10----------- 
----------11-6-8-9-- 
		  

See also:

tabs Terri Clark - I Wanna Do It All tabs City And Colour - Fragile Bird tabs Neil Young - Old Man tabs Paul Brandt - Small Towns Big Dreams tabs City And Colour - Caseys Song tabs Neil Young - Rockin In The Free World (ver. 2)
e-chords

Other versions:

tabs Terri Clark - Pain To Kill
auto scroll beats size up size down change color hide chords drawings
tab show chords e-chords YouTube Clip e-chords hide all tabs e-chords go to top tab

share