Terabrite

We Wear The Mask

Terabrite

tabs

by  CARLLUZ

save to print version add songbook text version e-mail correct tuner
chordsukulelecavacokeyboardtabbassdrumsharmonicaflute Guitar Pro
close

there isn't a video lesson for this song

chords

We Wear The Mask

	  		 

Intro/Chorus-Lead 
 D#------------------------------------------------------------||  
 A#-7h8------------------7h8p7-7h8-------------------7h8-------||  
 F#----7h9----(3x)-----7----------7h9----(2x)-----7h9----(2x)--||    2x  
 C#-------7h9------7h9---------------7h9-------7h9-------------||  
 G#------------------------------------------------------------||  
 C#------------------------------------------------------------||  


Intro/Chorus-Rythm 
 D#---------------------------------------||  
 A#---------------------------------------||  
 F#-x-7--7--7-7--x-x-x-x--x-7-7--x-x-7-5--||  
 C#-x-5--5--5-5--x-x-x-x--x-5-5--x-x-5-5--||  
 G#-x-5--5--5-5--x-x-x-x--x-5-5--x-x-5-5--||  
 C#-x-5--5--5-5--x-x-x-x--x-5-5--x-x-5-5--||  

 D#-----------------------------------------||  
 A#-----------------------------------------||  
 F#-x-11-11-1111-x-x-x-x--x-9-9--x-x-14-14--||  
 C#-x-9--9--9-9--x-x-x-x--x-7-7--x-x-12-12--||  
 G#-x-9--9--9-9--x-x-x-x--x-7-7--x-x-12-12--||  
 C#-x-9--9--9-9--x-x-x-x--x-7-7--x-x-12-12--||  


Verse-Lead 
We wear the mask that grins and lies, 

 D#-----------------------------------||  
 A#-----------------------------------||  
 F#-7-7-7-7-7-7-7-7--9-9-9-9-9-9-9-9--||  
 C#-----------------------------------||  
 G#-5-5-5-5-5-5-5-5--7-7-7-7-7-7-7-7--||  
 C#-----------------------------------||  

 D#--------------------------------------------||  
 A#--------------------------------------------||  
 F#-14-14-14-14-14-14-14-14--11111111-9-9-9-9--||  
 C#--------------------------------------------||  
 G#-12-12-12-12-12-12-12-12--9-9-9-9--7-7-7-7--||  
 C#--------------------------------------------||  

 D#-----------------------------------||  
 A#-----------------------------------||  
 F#-7-7-7-7-7-7-7-7--9-9-9-9-9-9-9-9--||  
 C#-----------------------------------||  
 G#-5-5-5-5-5-5-5-5--7-7-7-7-7-7-7-7--||  
 C#-----------------------------------||  

 D#-------------------------------------------||  
 A#-------------------------------------------||  
 F#-14-14-14-14-14-14-14-14--x-1111--x-x-9-9--||  
 C#--------------------------x-9-9---x-x-7-7--||  
 G#-12-12-12-12-12-12-12-12--x-9-9---x-x-7-7--||  
 C#--------------------------x-9-9---x-x-7-7--||  

Then 

 D#------------------------------------||  
 A#------------------------------------||  
 F#------------7-7-7--9-9-9-9-9-9-9-9--||  
 C#-x-x-x-x-x--------------------------||  
 G#-x-x-x-x-x--5-5-5--7-7-7-7-7-7-7-7--||  
 C#-x-x-x-x-x--------------------------||  

 D#-----------------------------------------------||  
 A#-----------------------------------------------||  
 F#-14-14-14-14-14-14-14-14--x-1111--9-9-9-9-9-9--||  
 C#--------------------------x-9-9----------------||  
 G#-12-12-12-12-12-12-12-12--x-9-9---7-7-7-7-7-7--||  
 C#--------------------------x-9-9----------------||  

Verse-Rythm 

 D#-----------------------------------||  
 A#-----------------------------------||  
 F#------------------9-9-9-9-9-9-9-9--||  
 C#-0-0-0-0-0-0-0-0-------------------||  
 G#-0-0-0-0-0-0-0-0--7-7-7-7-7-7-7-7--||  
 C#-0-0-0-0-0-0-0-0-------------------||  

 D#-----------------------------------||  
 A#-----------------------------------||  
 F#-11111111111111111111111111111111--||  
 C#-----------------------------------||  
 G#-9-9-9-9-9-9-9-9-9-9-9-9-9-9-9-9---||  
 C#-----------------------------------||  

 D#-----------------------------------||  
 A#-----------------------------------||  
 F#------------------9-9-9-9-9-9-9-9--||  
 C#-0-0-0-0-0-0-0-0-------------------||  
 G#-0-0-0-0-0-0-0-0--7-7-7-7-7-7-7-7--||  
 C#-0-0-0-0-0-0-0-0-------------------||  

 D#-------------------------------------------||  
 A#-------------------------------------------||  
 F#-14-14-14-14-14-14-14-14--x-1111--x-x-9-9--||  
 C#--------------------------x-9-9---x-x-7-7--||  
 G#-12-12-12-12-12-12-12-12--x-9-9---x-x-7-7--||  
 C#--------------------------x-9-9---x-x-7-7--||  

Then 
 D#-----------------------------------||  
 A#-----------------------------------||  
 F#------------------9-9-9-9-9-9-9-9--||  
 C#-0-0-0-0-0-0-0-0-------------------||  
 G#-0-0-0-0-0-0-0-0--7-7-7-7-7-7-7-7--||  
 C#-0-0-0-0-0-0-0-0-------------------||  

 D#-----------------------------------------------||  
 A#-----------------------------------------------||  
 F#-14-14-14-14-14-14-14-14--x-1111--9-9-9-9-9-9--||  
 C#--------------------------x-9-9----------------||  
 G#-12-12-12-12-12-12-12-12--x-9-9---7-7-7-7-7-7--||  
 C#--------------------------x-9-9----------------||  

Chorus- Do Rythm Intro two times First Then Lead and Ryhtm at the same time :D. 
Why should the world be over-wise, 

Then Verse 
We smile, but, O great Christ, our cries 
Do this verse only once then the second part will be 
Lead                                             Rythm 
 D#------------------------------------------||     D#----------------||  
 A#------------------------------------------||     A#----------------||  
 F#-7~----9~-----7~----14-14-14-14-14-14-14--||     F#-7~----9~----7--||(Then  
 C#------------------------------------------||     C#-5~----7~----5--||Stop ) 
 G#-5~----7~-----5~----12-12-12-12-12-12-12--||     G#-5~----7~----5--||  
 C#------------------------------------------||     C#-5~----7~----5--||  

Then Chorus-As always do the intro rythm first then lead and rythm blahblahblah. 
Why should the world be over-wise, 

Then Bridge 
We wear the mask 

 D#--------------------------||    D#--------------------------||  
 A#--------------------------||    A#--------------------------||  
 F#-----------7-7-7-7--------||    F#-----------7-7-7-7--------||  
 C#-0--0--0------------(4x)--||     C#-5--5--5------------(4x)--||(Both   for  
 G#-0--0--0---5-5-5-5--------||    G#-5--5--5---5-5-5-5--------||Two  Times) 
 C#-0--0--0------------------||    C#-5--5--5------------------||  

Acoustic 
Im Not sure about this but it sounds like it 

 D#----------------------------------------------||  
 A#----------------------------------------------||  
 F#-------------------------14--14--14-14-14--9--||  
 C#-0--0--x-x-x-x-x--5-5-5--12--12--12-12-12--7--||  
 G#-0--0--x-x-x-x-x--5-5-5--12--12--12-12-12--7--||(Do   the   last   strum   Once  
 C#-0--0--x-x-x-x-x--5-5-5--12--12--12-12-12--7--||or  twice :D)  
		  

See also:

tabs Deep Blue Something - Breakfast at Tiffany's tabs Christopher Cross - Sailing tabs Yellowcard - Only One tabs Michael Jackson - Heal The World tabs Backstreet Boys - Everybody (Backstreet's Back) tabs Michael Jackson - Smooth Criminal
e-chords

Other versions:

tabs Terabrite - We Wear The Mask
auto scroll beats size up size down change color hide chords drawings
tab show chords e-chords YouTube Clip e-chords hide all tabs e-chords go to top tab

share