Tenacious D

Wonderboy (ver. 1)

Tenacious D

tabs Intermediate intermediate

save to print version add songbook text version e-mail correct tuner
chordsukulelecavacokeyboardtabbassdrumsharmonicaflute Guitar Pro
close

there isn't a video lesson for this song

chords

Wonderboy (ver. 1)

	  		 
Tuning: E A D G B E 
Tabbed By: TabGuru 
 
This is the first song I've ever tabbed, so I hope you find it satisfactory. 
 
Wonderboy is a great song, but it is not on this site (at least at the time this was tabbed), so I sat down for a couple of hours and tabbed all the important stuff out, the rest can just be repeated from whats on here.  
 
Well, enjoy. 
 
h= hammer  
b= bend up 
*= let ring  
 
 
Intro                                       Repeat 
E---2-----3h2-----2---------------------------------------------- 
B-----3-------3--------6-5-3---6-5-3---3------------------------- 
G-------2-------2----3-------3-------3--------------------------- 
D-0-------------------------------------------------------------- 
A---------------------------------------------------------------- 
E---------------------------------------------------------------- 
 
2nd Guitar 
E-7*-8-10-8-7*-8-11-8-7*----------------------------------------- 
B---------------------------------------------------------------- 
D---------------------------------------------------------------- 
G---------------------------------------------------------------- 
A---------------------------------------------------------------- 
E---------------------------------------------------------------- 
 
Palm Muted- 
D           Db                            B 
Not much to say when your high above the mucky muck 
A        G  A (don't mute) 
Yeaaaahhhh!! 
 
D* 
 
Later: 
Palm Muted- 
D            Db            B           A             G     A 
     Wonderboy!  Won't you take me far away from the mucky muck  
D* 
man! 
 
During Spoken part: 
D Db B A G Gb Em A 
 
Solo after "the power to move you": 
E--12b13--10----------------------------------------------------- 
B------------10-11-10-8-11-10*----------------------------------- 
D---------------------------------------------------------------- 
G---------------------------------------------------------------- 
A---------------------------------------------------------------- 
E---------------------------------------------------------------- 
Palm Muted- 
A  A  A   A   A  A  A   A  
Rigga-goo-goo Rigga-goo-goo 
 
Next: 
Palm Muted- 
D                      Db 
A secret to be told, A gold chest to be bold  
    B                                     A 
And blasting forth with three part harmony  
    G A 
Yow! 
 
Palm Muted- 
D            Db            B           A             G     A 
     Wonderboy!  Won't you take me far away from the mucky muck  
D* 
man! 
 
Later: 
             D         Db             B             A    G     C G D 
That's right meee and KG! That's me.     We, We are Tena-cious D----!  
 
Come fly with me, fly! 
(then play this solo) 
E--10----10----10----10-12-12b13-10------------------------------ 
B-----10----10----10----------------10-11-10-8-11---------------- 
D---------------------------------------------------------------- 
G---------------------------------------------------------------- 
A---------------------------------------------------------------- 
E---------------------------------------------------------------- 
 
Extremely Fast 
E-15h14-12--15h14-12--15h14-12--15h14-12--15h14-12--15h14-12----- 
B---------------------------------------------------------------- 
D---------------------------------------------------------------- 
G---------------------------------------------------------------- 
A---------------------------------------------------------------- 
E---------------------------------------------------------------- 
                      This part may not be correct, but it is too  
                      fast to be completely accurate. 
E-15h14-12--15h14-12--17-15-14-12-15-14-12-10-14-12-10----------- 
B------------------------------------------------------13-13h15-- 
D---------------------------------------------------------------- 
G---------------------------------------------------------------- 
A---------------------------------------------------------------- 
E---------------------------------------------------------------- 
                                slow 
E---------------------------------------------------------------- 
B-13-11-13-11-13-11-13-11-10*---7*-7-5-3-5-7*-7-5-3-5-3-2-0------ 
D-----------------------------------------------------------2---- 
G---------------------------------------------------------------- 
A---------------------------------------------------------------- 
E---------------------------------------------------------------- 
faster 
E-----0-2-3-2-0-2------------------------------------------------ 
B-0-2------------------------------------------------------------ 
D---------------------------------------------------------------- 
G---------------------------------------------------------------- 
A---------------------------------------------------------------- 
E---------------------------------------------------------------- 
 
Palm Muted- 
D            Db            B           A             G     A 
     Wonderboy!  Won't you take me far away from the mucky muck  
D* 
man! 
 

		  

Full key step upFull key step up
Half key step upHalf key step up
Half key step downHalf key step down
Full key step downFull key step down
hide glossary

See also:

tabs Quiet Riot - Come on feel the noise (com solo) tabs Tenacious D - One Note Song tabs Tenacious D - Her Gently tabs Tenacious D - Wonderboy (ver. 1) tabs Prince - Purple rain (solo) tabs Soundtracks - Lord Of The Rings Theme
e-chords

Other versions:

tabs Tenacious D - Wonderboy tabs Dorm Patrol - Wonderboy tabs Tenacious D - Wonderboy (ver. 1) tabs Tenacious D - Wonderboy (ver. 2)
auto scroll beats size up size down change color hide chords drawings
tab show chords e-chords YouTube Clip e-chords hide all tabs e-chords go to top tab

share