Tenacious D

Song 1 Before Classico

Tenacious D

tabs

by  BOMBAXXX

save to print version add songbook text version e-mail correct tuner
chordsukulelecavacokeyboardtabbassdrumsharmonicaflute Guitar Pro
close

there isn't a video lesson for this song

chords

Song 1 Before Classico

	  		 


Strumming pattern: Down-Up-Down-Up 

    D U D U   D U D U   D U D U   D U D U  
e|--0-0-0-0---0-0-0-0---0-0-0-0---0-0-0-0------------------------------------| 
B|--0-0-0-0---0-0-0-0---0-0-0-0---0-0-0-0------------------------------------| 
G|--1-1-1-1---1-1-1-1---1-1-1-1---1-1-1-1------------------------------------| 
D|--2-2-2-2---2-2-2-2---2-2-2-2---2-2-2-2------------------------------------| 
A|--2-2-2-2---2-2-2-2---2-2-2-2---2-2-2-2------------------------------------| 
E|--0-0-0-0---0-0-0-0---0-0-0-0---0-0-0-0------------------------------------| 

same here. 
e|--0-0-0-0---0-0-0-0---0-0-0-0---0-0-0-0------------------------------------| 
B|--0-0-0-0---0-0-0-0---0-0-0-0---0-0-0-0------------------------------------| 
G|--2-2-2-2---2-2-2-2---2-2-2-2---2-2-2-2------------------------------------| 
D|--3-3-3-3---3-3-3-3---3-3-3-3---3-3-3-3------------------------------------| 
A|--3-3-3-3---3-3-3-3---3-3-3-3---3-3-3-3------------------------------------| 
E|--0-0-0-0---0-0-0-0---0-0-0-0---0-0-0-0------------------------------------| 

and here 
e|--0-0-0-0---0-0-0-0---0-0-0-0---0-0-0-0------------------------------------| 
B|--0-0-0-0---0-0-0-0---0-0-0-0---0-0-0-0------------------------------------| 
G|--1-1-1-1---1-1-1-1---1-1-1-1---1-1-1-1------------------------------------| 
D|--2-2-2-2---2-2-2-2---2-2-2-2---2-2-2-2------------------------------------| 
A|--2-2-2-2---2-2-2-2---2-2-2-2---2-2-2-2------------------------------------| 
E|--0-0-0-0---0-0-0-0---0-0-0-0---0-0-0-0------------------------------------| 

also here 
e|--0-0-0-0---0-0-0-0---0-0-0-0---0-0-0-0------------------------------------| 
B|--0-0-0-0---0-0-0-0---0-0-0-0---0-0-0-0------------------------------------| 
G|--2-2-2-2---2-2-2-2---2-2-2-2---2-2-2-2------------------------------------| 
D|--3-3-3-3---3-3-3-3---3-3-3-3---3-3-3-3------------------------------------| 
A|--3-3-3-3---3-3-3-3---3-3-3-3---3-3-3-3------------------------------------| 
E|--0-0-0-0---0-0-0-0---0-0-0-0---0-0-0-0------------------------------------| 

    _D_ U D U  -D U D U    _D_ U D U  -D U D U   // "_D_" and "-D" downstroke need to be heavier. same rythm 
e|---------------------------------------------------------------------------| 
B|---------------------------------------------------------------------------| 
G|--7/9-9-9-9---9-9-9-9----7/9-9-9-9---9-9-9-9-------------------------------| 
D|--7/9-9-9-9---9-9-9-9----7/9-9-9-9---9-9-9-9-------------------------------| 
A|--5/7-7-7-7---7-7-7-7----5/7-8-8-8---7-7-7-7-------------------------------| 
E|---------------------------------------------------------------------------| 
                                    
                          same rythm,but faster(16x)| let ring  | hard on lower e 
                                   as before:       | on high e | 
                                   DUDUDUDUDUDUDUDU |             D U 
e|---------------------------------0000000000000000---0????????---0-0--------| 
B|---------------------------------0000000000000000---0????????---0-0--------| 
G|10-9-7---9-7-5---3-5-4---5-4-0---1111111111111111---2????????---1-1--------| 
D|10-9-7---9-7-5---3-5-4---5-4-0---2222222222222222---3????????---2-2--------| 
A|8--7-5---7-5-3---5-3-2---3-2-0---2222222222222222---3????????---2-2--------| 
E|---------------------------------0000000000000000---0????????---0-0--------| 


************************************ 

| /   slide up 
| \   slide down 
| h   hammer-on 
| p   pull-off 
| ~   vibrato 
| +   harmonic 
| x   Mute note 
| b   Bend 
| pb  Pre-bend 
| br  Bend release 
| pbr Pre-bend release 
| brb Bend release bend 

************************************ 
		  

Full key step upFull key step up
Half key step upHalf key step up
Half key step downHalf key step down
Full key step downFull key step down
hide glossary

See also:

tabs Avenged Sevenfold - Betrayed tabs John Williams - Star wars theme tabs Soundtracks - Jurassic Park - Theme tabs Avenged Sevenfold - I Wont See You Tonight Part 1 tabs Pavement - Grounded tabs Avenged Sevenfold - Walk
e-chords

Other versions:

tabs Tenacious D - Song 1 Before Classico
auto scroll beats size up size down change color hide chords drawings
tab show chords e-chords YouTube Clip e-chords hide all tabs e-chords go to top tab

share