Tenacious D

Kyle Took A Bullet For Me

Tenacious D

tabs Beginner beginner

save to print version add songbook text version e-mail correct tuner
chordsukulelecavacokeyboardtabbassdrumsharmonicaflute Guitar Pro
close

there isn't a video lesson for this song

chords

Kyle Took A Bullet For Me

	  		 

Verse 1-jack 
 
E----------2-h-3-p-2------------2---slide---5--------------------------- 
B--------3----------------------3---slide---6--------------------------- 
G------2------------------------2---slide---5--------------------------- 
D----0--------------------------0---slide---0--------------------------- 
(Jack)Kyle took a ................................. 
 
 
E----5----5------3--3--3------3--3--3-h-5--------0-h 2----------------- 
B----5----5------5--5--5------3--3--3------------3--------------------- 
G----6----6------5--5--5------4--4--4------------2--------------------- 
D----0----0------0--0--0------0--0--0------------0--------------------- 
(Jack)   K.G. and ............ 
 
 
Verse 2- Kyle 
 
E----------2-h-3-p-2------------2---slide---5-h-6-p-5------------------ 
B--------3----------------------3---slide---6-------------------------- 
G------2------------------------2---slide---5-------------------------- 
D----0--------------------------0---slide---0-------------------------- 
 
(Kyle)I took a................................... 
 
E----5----5------3--3--3-----------------3--3--3-h 5--------0-h 2------ 
B----5----5------5--5--5-----------------3--3--3------------3---------- 
G----6----6------5--5--5-----------------4--4--4------------2---------- 
D----0----0------0--0--0-----------------0--0--0------------0---------- 
(Jack)Your .............................(Kyle)                                
     Was ....................... 
 
verse 3-Jack and Kyle 
 
E----2--------------------------2---slide---5--------------------------- 
B----3--------------------------3---slide---6--------------------------- 
G----2--------------------------2---slide---5--------------------------- 
D----0--------------------------0---slide---0--------------------------- 
(Jack)Oh wait......................... 
 
E----5----5------3--3--3-----------------3--3--3-h 5--------0-h 2------- 
B----5----5------5--5--5-----------------3--3--3------------3----------- 
G----6----6------5--5--5-----------------4--4--4------------2----------- 
D----0----0------0--0--0-----------------0--0--0------------0----------- 
(Jack)Was .................................. 
(Kyle)                                       Was ..................... 
 
 
E----2-----------------------------------2---slide---5------------------ 
B----3-----------------------------------3---slide---6------------------ 
G----2-----------------------------------2---slide---5------------------ 
D----0-----------------------------------0---slide---0------------------ 
(Jack)Wait ............................ 
 
E----5----5------3--3--3-----------------3--3--3-h 5--------0-h 2------- 
B----5----5------5--5--5-----------------3--3--3------------3----------- 
G----6----6------5--5--5-----------------4--4--4------------2----------- 
D----0----0------0--0--0-----------------0--0--0------------0----------- 
(Jack)								   Whoa! 
(Kyle) Just......................................... 
 
 
Verse 4--Jack and Kyle both sing lyrics from their solo verse. 
 
E----2-h-3-p-2------------------------------2---slide---5----------- 
B----3--------------------------------------3---slide---6----------- 
G----2--------------------------------------2---slide---5----------- 
D----0--------------------------------------0---slide---0----------- 
 
 
E----5----5------3--3--3---------3--3--3-h 5--------0-h 2-------------- 
B----5----5------5--5--5---------3--3--3------------3------------------ 
G----6----6------5--5--5---------4--4--4------------2------------------ 
D----0----0------0--0--0---------0--0--0------------0------------------ 
 
Grand finale: 
E----0-h-2-----0-h-2-----0-h-2-----0-h-2------------------ 
B----3---------3---------3---------3---------------------- 
G----0-h-2-----0-h-2-----0-h-2-----0-h-2------------------ 
D----0---------0---------0---------0---------------------- 
JB&KG: "D............................................... 
 
E----0-h-2-----0-h-2-----0-h-2-----3---3---2-------------- 
B----3---------3---------3---------5---3---3-------------- 
G----0-h-2-----0-h-2-----0-h-2-----5---4---2-------------- 
D----0---------0---------0---------0---0---0-------------- 
........................................... 
 

		  

See also:

tabs Avenged Sevenfold - Betrayed tabs John Williams - Star wars theme tabs Soundtracks - Jurassic Park - Theme tabs Avenged Sevenfold - I Wont See You Tonight Part 1 tabs Pavement - Grounded tabs Avenged Sevenfold - Walk
e-chords

Other versions:

tabs Tenacious D - Kyle Took A Bullet For Me
auto scroll beats size up size down change color hide chords drawings
tab show chords e-chords YouTube Clip e-chords hide all tabs e-chords go to top tab

share