Temples

Sun Structures

Temples

tabs

by  GUSTSILVA

save to print version add songbook text version e-mail correct tuner
chordsukulelecavacokeyboardtabbassdrumsharmonicaflute Guitar Pro
close

there isn't a video lesson for this song

chords

Sun Structures

	  		


intro synth (to guitar) 
e|--5----3--5--6----8---6----------| 
B|--7----5--7--8----8---8----------| 
G|--7----5--7--7----7---7----------|x2 
D|---------------------------------| 
A|---------------------------------| 
E|---------------------------------| 

verse 
0:27 
e|---------------------------------| 
B|---------------------------------| 
G|---------------------------------| 
D|--0--12-12--10-10--9-9--7h9p7----|x3 
A|---------------------------------| 
E|---------------------------------| 

e|------------------------| 
B|------------------------| 
G|------------------------| 
D|---3~~-------2~~--------| 
A|------------------------| 
E|------------------------| 


0:41 
e|---------------------------------| 
B|---------------------------------| 
G|----------------10-10--9---------| 
D|--12-12--12-12-----------12-10---| 
A|---------------------------------| 
E|---------------------------------| 

e|---------------------------------| 
B|---------------------------------| 
G|---------------------------------| 
D|--0--12-12--10-10--9-9--7h9p7----|x3 
A|---------------------------------| 
E|---------------------------------| 

e|------------------------| 
B|------------------------| 
G|------------------------| 
D|---3~~-------2~~--------| 
A|------------------------| 
E|------------------------| 

e|---------------------------------| 
B|---------------------------------| 
G|----------------10-10--9---------| 
D|--12-12--12-12-----------12-10---| 
A|---------------------------------| 
E|---------------------------------| 

0:57 
e|---------------------------------| 
B|---------------------------------| 
G|----------------17-16------------| 
D|--19-19--19-19--------19-17-15---| 
A|---------------------------------| 
E|---------------------------------| 


1:00 
e|--------------------------------------| 
B|--------------------------------------| 
G|-----7--5-7--11h12p11--5-------5-7----| 
D|--0----------------------7-5-7--------| 
A|--------------------------------------| 
E|--------------------------------------| 

e|-----------------------10-8-7-6-5------| 
B|----------------------------------5-7--| 
G|-----7--5-7--11h12p11------------------| 
D|--0------------------------------------| 
A|---------------------------------------| 
E|---------------------------------------| 

1:08 
e|--2---0---2~~2--0-------| 
B|--2---0---2~~2--0-------| 
G|--2---0---2~~2--0-------| 
D|------------------------|x4 
A|------------------------| 
E|------------------------| 

1:21 
e|----2---4---5---8----7----| 
B|----2---4---5---8----7----| 
G|----2---4---5---8----7----| 
D|----4---6---7---10---9----| 
A|----4---6---7---10---9----| 
E|----2---4---5---8----7----| 

e|-------------------------------| 
B|-------------------------------| 
G|-------------------------------| 
D|-------------------------------| 
A|---------------12-12-11--------| 
E|--14-14--14-14----------14-12--| 

e|----2---4---5---8----7----| 
B|----2---4---5---8----7----| 
G|----2---4---5---8----7----| 
D|----4---6---7---10---9----| 
A|----4---6---7---10---9----| 
E|----2---4---5---8----7----| 


1:35 
e|--------------------------------------| 
B|--------------------------------------| 
G|-----7--5-7--11h12p11--5-------5-7----| 
D|--0----------------------7-5-7--------|x4 
A|--------------------------------------| 
E|--------------------------------------| 

repeat all above (without synth intro) 


2:57 
e|--------------------------------------| 
B|--------------------------------------| 
G|-----7--5-7--11h12p11--5-------5-7----| 
D|--0----------------------7-5-7--------| 
A|--------------------------------------| 
E|--------------------------------------| 

e|---------------------------------| 
B|---------------------------------| 
G|--7--7--7--7--7--7--7--7--7--7---| 
D|---------------------------------| 
A|---------------------------------| 
E|---------------------------------| 

solo 
3:14 
e|----------------------------------------------------------| 
B|----------------------------------------------------------| 
G|--7---7-5--4--4h5p4--2----7--5-7---11h12p11--11-11--11-11-| 
D|----------------------------------------------------------| 
A|----------------------------------------------------------| 
E|----------------------------------------------------------| 

e|----------------------------------------------------------| 
B|----------------------------------------------------------| 
G|--14-14--14-14---12-12--12-11--11-7--7--7--7--7--7--7--7--| 
D|----------------------------------------------------------| 
A|----------------------------------------------------------| 
E|----------------------------------------------------------| 

3:29 
e|-------------------------------------------------------------------------| 
B|-1717-15-171717171717171717171717--1919-17-1919191919--2020-19-20202020--| 
G|-------------------------------------------------------------------------| 
D|-------------------------------------------------------------------------| 
A|-------------------------------------------------------------------------| 
E|-------------------------------------------------------------------------| 

3:35 
e|-----------------------------------------------------------------------| 
B|-131313131313131313131313-171717171717---------------------------------| 
G|---------------------------------------77-5-777777777777777777777777---| 
D|-----------------------------------------------------------------------| 
A|-----------------------------------------------------------------------| 
E|-----------------------------------------------------------------------| 

3:42 
e|---------------------------------------------------| 
B|---------------------------------------------------| 
G|--5555555555555555555555555555-2222222~~~~---------| 
D|---------------------------------------------------| 
A|---------------------------------------------------| 
E|---------------------------------------------------| 

3:49 
e|----------------------------------------------------------------------| 
B|-15-1717171717171717171717171717-1919191919191919--2020202020202020---| 
G|----------------------------------------------------------------------| 
D|----------------------------------------------------------------------| 
A|----------------------------------------------------------------------| 
E|----------------------------------------------------------------------| 


3:56 
e|---------------------------------| 
B|---------------------------------| 
G|----------------10-10--9---------| 
D|--12-12--12-12-----------12-10---| 
A|---------------------------------| 
E|---------------------------------| 

e|---------------------------------| 
B|---------------------------------| 
G|----------------17-16------------| 
D|--19-19--19-19--------19-17-15---| 
A|---------------------------------| 
E|---------------------------------| 

e|-----------------------------| 
B|-----------------------------| 
G|-----7---9---10--13---12-----| 
D|-----7---9---10--13---12-----| 
A|-----5---7---8---11---10-----| 
E|-----------------------------| 

e|---------------------------------| 
B|---------------------------------| 
G|----------------10-10--9---------| 
D|--12-12--12-12-----------12-10---| 
A|---------------------------------| 
E|---------------------------------| 

e|-----------------------------| 
B|-----------------------------| 
G|-----7---9---10--13---12-----| 
D|-----7---9---10--13---12-----| 
A|-----5---7---8---11---10-----| 
E|-----------------------------| 


4:12 
e|---------------------------------| 
B|---------------------------------| 
G|---------------------------------| 
D|---------------------------------| 
A|--12\\\\\\\\\\\\\\\\\\\\\\\\\\\--| 
E|---------------------------------| 

e|--------------------| 
B|--------------------| 
G|--------------------| 
D|--------------------|x4 
A|---5-5---5-5-5------| 
E|--------------------| 

e|--------------------------------------| 
B|--------------------------------------| 
G|-----7--5-7--11h12p11--5-------5-7----| 
D|--0----------------------7-5-7--------|x8 
A|--------------------------------------| 
E|--------------------------------------| 


4:52 
e|---------------------------------| 
B|---------------------------------| 
G|---4-5---4h5p4h5p4\2-------------| 
D|---------------------------------| 
A|---------------------------------| 
E|---------------------------------| 

5:00 
e|---------------------------------| 
B|---------------------------------| 
G|---7~~~~~~~~~~~~-----------------| 
D|---------------------------------| 
A|---------------------------------| 
E|---------------------------------| 
		  

See also:

tabs Deep Purple - Smoke on the water (ver. 3) tabs Albert Hammond Jr - Holiday tabs Deep Purple - When a Blind man cries tabs Deep Purple - The Unwritten Law tabs Deep Purple - Highway Star tabs Ira! - Núcleo Base ( Acústico MTV)
e-chords

Other versions:

tabs Temples - Sun Structures
auto scroll beats size up size down change color hide chords drawings
tab show chords e-chords YouTube Clip e-chords hide all tabs e-chords go to top tab

share