Temas Variados

Tetris Tab

Temas Variados

Difficulty: BeginnerBeginner

by ochatodanet

tuner correct add songbook print version text version save to e-mail
chordsukulelecavacokeyboardtabbassdrumsharmonicsflute Guitar Pro
close

there isn't a video lesson for this song

request
chords

Tetris

  		Bom.. todo mundo já jogou aqueles  
joguinhos de encaixar no brick game..  
 
 
E|---------------------------------------- 
B|-7-----------------7-------------7------ 
G|---6-7-9-7-6-----7---9-7-6-6-7-9---7---- 
D|-------------9-9---------------------9-9 
A|---------------------------------------- 
E|---------------------------------------- 
 
E|-------7-5------------------------------ 
B|-----8----8-7----7-5-----------7-------- 
G|-9-9----------7------7-6-6-7-9---7------ 
D|-----------------------------------9-9-- 
A|---------------------------------------- 
E|---------------------------------------- 

	  

Search Paypal
auto scroll beats size up size down change color hide chords drawings
tab show chords e-chords YouTube Clip e-chords hide all tabs e-chords go to top tab

share with facebook