Temas Diversos

home > Temas Diversos

Top Gun Tab

Temas Diversos

Difficulty: nolevelnolevel

by gustsilva

tuner correct add songbook print version text version save to e-mail
chordsukulelecavacokeyboardtabbassdrumsharmonicsflute Guitar Pro
chords

Top Gun

  		 
E--------------------------------------------------------| 
B-----8--8--6-5-6-5--------------5-----5--6--5-----5-----| 
G--5------------------7--7--5--7-----7-----------7-----7~| 
D--------------------------------------------------------| 
A--------------------------------------------------------| 
E--------------------------------------------------------| 
 

 
E----------------------------------------------------| 
B-----8--8--6-5-6-5--------------5-----5--6--5-----8~| 
G--5------------------7--7--5--7-----7-----------7---| 
D----------------------------------------------------| 
A----------------------------------------------------| 
E----------------------------------------------------| 
 

 
E-----8--8--6-5-6-5--------------5-----5--6--5-----5----| 
B--6-----------------8--8--6--8-----8-----------8-----8~| 
G-------------------------------------------------------| 
D-------------------------------------------------------| 
A-------------------------------------------------------| 
E-------------------------------------------------------| 
 

 
E--------------------------------------------------------| 
B-----8--8--6-5-6-5--------------5-----5--6--5-----5-----| 
G--5------------------7--7--5--7-----7-----------7-----7~| 
D--------------------------------------------------------| 
A--------------------------------------------------------| 
E--------------------------------------------------------| 
 

 
E----------------------------------------------------| 
B-----8--8--6-5-6-5--------------5-----5--6--5-----8~| 
G--5------------------7--7--5--7-----7-----------7---| 
D----------------------------------------------------| 
A----------------------------------------------------| 
E----------------------------------------------------| 
 

 
E-----8--8--6-5-6-5--------------5-----5--6--5-----5----| 
B--6-----------------8--8--6--8-----8-----------8-----8~| 
G-------------------------------------------------------| 
D-------------------------------------------------------| 
A-------------------------------------------------------| 
E-------------------------------------------------------| 
 

E-----8--8--6-5-6-5--------------5-----5--6--5----8| 
B--6-----------------8--8--6--8-----8-----------8--| 
G--------------------------------------------------| 
D--------------------------------------------------| 
A--------------------------------------------------| 
E--------------------------------------------------| 
	  

Search Paypal
auto scroll beats size up size down change color hide chords drawings
tab show chords e-chords YouTube Clip e-chords hide all tabs e-chords go to top tab