Temas Diversos

Top Gear - 4 Corrida Tab

Temas Diversos

Difficulty: nolevelnolevel

by gustsilva

tuner correct add songbook print version text version save to e-mail
chordsukulelecavacokeyboardtabbassdrumsharmonicsflute Guitar Pro
close

there isn't a video lesson for this song

request
chords

Top Gear - 4 Corrida

  		(2x) 
 
E|----------------------------------------------------------------------- 
B|----------------------------------------------------------------------- 
G|0---0-3-3--0-----0x---0---0-6-6-5-3-5-3x-3x---------------------------- 
D|--3---------0-3----------3--------------------------------------------- 
A|----------------------------------------------------------------------- 
E|----------------------------------------------------------------------- 
 

 
E|----------------------------------------------------------------------- 
B|3-4-3-------3--------3-6----------------------------------------------- 
G|------5-3-5---3--3-5-----5-5------------------------------------------- 
D|----------------------------------------------------------------------- 
A|----------------------------------------------------------------------- 
E|----------------------------------------------------------------------- 
 

(2x) 
 
E|----------------------------------------------------------------------- 
B|11-10----------10-11--------10-11-11----------------------------------- 
G|------12-10-12-------12--12----------12-12----------------------------- 
D|----------------------------------------------------------------------- 
A|----------------------------------------------------------------------- 
E|----------------------------------------------------------------------- 
 

 
E|----------3-1------1-3------------------------------------------------- 
B|4-3---3-4-----4--4------4-3-------3-4-3-------------------------------- 
G|----5-----------------------5-3-5-------0--0--------------------------- 
D|----------------------------------------------------------------------- 
A|----------------------------------------------------------------------- 
E|----------------------------------------------------------------------- 
 

 
E|----------3-1---------------------------------------------------------- 
B|4-3---3-4-----4--4-6-8-11-10----------10-11-10--10-11-10-10------------ 
G|----5------------------------12-10-12-----------------------12--------- 
D|----------------------------------------------------------------------- 
A|----------------------------------------------------------------------- 
E|----------------------------------------------------------------------- 
	  

Search Paypal
auto scroll beats size up size down change color hide chords drawings
tab show chords e-chords YouTube Clip e-chords hide all tabs e-chords go to top tab

share with facebook